MUZBANK



A MOST COMPLETE BANK OF MUSIC INFORMATION

МУЗЫКАЛЬНО-ИНФОРМАЦИОННЫЙ БАНК





OOffspring • Feelings (аккорды и текст - chords & lyrics)


1101

Print

Видео «Feelings (Offspring)»

Видео клипы к песне подбираются автоматически сайтом youtube. Возможны некоторые несоответствия клипов песне.

↑ Спрятать рекламу ↑





  Проигрыш:    *=play 9X with fast palm-muting   #=play 4-6X
e|-----------------------------------------------|
B|----*---*---*---*---*---*-------#---#---#---#--|
G|---5---5---5---7---7---7----#--9---9---9---9---|
D|---7---6---5---4---3---5---7---9---9---9---9---|
A|---------------------------7---7---7---7---7---|
E|---------------------------5-------------------|

  Версия 2 (РАЗА)  *=play 9X with fast palm-muting #=play 4-6X
e|-----------------------------------|
B|--------------------------------#--|
G|----------------------------#--9---|
D|----*---*---*---*---*---*--7---9---|
A|---3---3---3---5---5---5---7---7---|
E|---5---4---3---2---1---3---5-------|
Feelings
Nothing more than feelings
Trying to forget my
Feelings of hate

Imagine
Beating on your face
Trying to forget my
Feelings of hate

  Припев: !play all notes 6X!
G|---------5---5---7---9------------------5---5---7---4---1--2-|
D|-3---3---5---5---7---9---7---7---3---3--5---5---7---4---2--2-|
A|-3---3---3---3---5---7---7---7---3---3--3---3---5---2---2--2-|
E|-1---1-------------------5---5---1---1------------------0--0-|

Feelings
For all my life i'll feel it
I wish I'd never met you
You'll make me sick again
Feelings, oh oh feelings
Of hate on my mind

  Версия :
Feelings
Feelings like I never liked you
Feelings like I want to kill you
Live in my heart

Feelings
Feelings like I wanna deck you
Feelings like I've gotta get you
Out of my life

  Припев:2: !play all notes 6X!   *=play once
e|----------------------------------------------------------*-|
B|-------------------------------------------------9--10---9--|
G|-------5---5---7---9---------------5---5---7--4--9---9---9--|
D|-3--3--5---5---7---9---7---7-3-3---5---5---7--4--9---9---9--|
A|-3--3--3---3---5---7---7---7-3-3---3---3---5--2--7---7---7--|
E|-1--1------------------5---5-1-1----------------------------|
Feelings, oh oh feelings
The hate's in my eyes
Feelings, oh oh feelings
You're not very nice

Solo:
e|----------------------------------------------8--------------|
B|-------------8-----------------5-------5-8Н1010--10----------|
G|-9v9v9v9v9v9v--9-9-------------5----5----------------9-9-9-9-|
D|----------------10-7-------5Н7--------7----------------------|
A|-------------------------7-----------------------------------|
E|-------------------------------------------------------------|

e|-----------------------1715-----------------20b22-20-17-17Н-|
B|-15b17-15k15k15k15k15k-----17-----------13------------------|
G|-----------------------------1714-14Н17-14------------------|
D|------------------------------------------------------------|

e|--------------------------------------|
B|-----------101010101313131317171717---|
G|---9-9-9-9----------------------------|
D|--------------------------------------|

Припев:3: !play all notes 6X!  *=play once #=play 8X palm-muted
e|--------------2 (РАЗА)-----------|---------------------------|
B|---------------------------------|----------------#---#------|
G|-----------5---5---7---9---------|---------5-----7---9-------|
D|---3---3---5---5---7---9---7---7-|-3-------5-----7---9---7---|
A|---3---3---3---3---5---7---7---7-|-3-------3-----5---7---7---|
E|---1---1-------------------5---5-|-1---------------------5---|

Feelings, oh oh feelings,
Oh oh feelings into my mind
Feelings, oh oh feelings,
Oh oh feelings get out of my life

Feelings,oh oh feelings,
Oh oh feelings get out of my ... life

  Outro:   Н=hammer-on
e|------|------15----|--------------------|
B|---17-|-15Н17--Н17-|15----15------------|
G|------|------------|---17----17----14⁄--|
D|------|------------|--------------------|
A|------|----16X-----|--------------------|
E|------|-real-fast--|--------------------|

Тональность:

Это должно быть в ТОП-листе! - Топ-лист композиций



Назад
Рекомендуем посмотреть другие песни исполнителя «Offspring»:

  • Комменты Fb ()
  • Комменты ВК



Добавить в Избранное Браузера
Сохранить здесь Очистить


x

0


+
-

+
-

-

Авторизация





Зарегистрироваться

M

Дата и время

  • 04:35:47
     

Социальные ссылки


Наши приложения

  • Muzbank App Play Market
  • Muzbank Amazon App
  • Muzbank Bitcoin13igjuWJj2R4cHiyZqP7Q3ggVvfXE9j82Q