MUZBANK


МУЗЫКАЛЬНО-ИНФОРМАЦИОННЫЙ БАНК





OOffspring • Genocide (аккорды и текст - chords & lyrics)


426

Print

Видео «Genocide (Offspring)»

Видео клипы к песне подбираются автоматически сайтом youtube. Возможны некоторые несоответствия клипов песне.

↑ Спрятать рекламу ↑






Intro:  X4
E|--------------------------------------------------------|
B|--------------------------------------------------------|
G|-------------------------------------------5-5-5--5--5--|
D|-5-5-5--5--5---5-5-5--5--5---3-3-3--3--3---5-5-5--5--5--|
A|-5-5-5--5--5---5-5-5--5--5---3-3-3--3--3---3-3-3--3--3--|
E|-3-3-3--3--3---3-3-3--3--3---1-1-1--1--1----------------|


Solo:   X2
E|-6-6--6-5-5-6-6-8-8-6--6-6-5---5--6--6-6-5---------------|
B|-----------------------------6-------------5-6--5--53/5--|
G|---------------------------------------------------------|
D|---------------------------------------------------------|

N.C.
Our lives run different ways
Through the rain I see you in the sun
Our star shines anyway

End-verse:    X7
E|--------------------|
B|--------------------|
G|---0-0-0-0--0-0-0---|
D|--------------------|
If you wish upon it we are one


Pre-chorus:
e|----------------|
B|----------------|
G|---5--5--5--5---|
D|---5--5--5--5---|
A|---3--3--3--3---|
E|----------------|
One, two, three, four

Chorus:   X 2   *=play 7X
E|-------------------|
B|------------*------|
G|----*---*-10----*--|
D|---5---8--10--10---|
A|---5---8---8--10---|
E|---3---6-------8---|

Dog eat dog
Every day
All about a man that we prey (?)
Dog eat dog
To get by
Hope you like my genocide

Intro:

Verse:
N.C.
I find it such a shame
Through the pain I see things as they are
We?re served up on a plate
The pedestal is high enough to fall

End-verse2:
e|-------------|
B|-------------|
G|---8---8-5---|
D|---8---8-5---|
A|---6---6-3---|
E|-------------|
And if in time
We can see the errors of our ways
Would anyone change it anyhow

Pre-chorus2:
e|----------------|
B|----------------|
G|---5--5--7--7---|
D|---5--5--7--7---|
A|---3--3--5--5---|
E|----------------|

Our time is up

Chorus:  X2


Bridge:  X7
e|-------------------------------------|
B|-------------------------------------|
G|-------------------------------------|
D|-------------------------------------|
A|---5---5---5---5----8---8---8---8--8-|
E|-3---3---3---3----6---6---6---6------|

e|--------------------------------------|
B|--------------------------------------|
G|--------------------------------------|
D|-10---10---10---10--------------------|
A|----8----8----8------10---10---10---10|
E|-------------------8----8----8----8---|


Bridge2:     (over bridge)
e|-------------------------------------------|
B|-------------------------------------------|
G|----------------------10-10----------------|
D|---5-5-----5-5---8-8--10-10--10-10---5-5---|
A|---5-5-----5-5---8-8---8--8--10-10---5-5---|
E|---3-3-----3-3---6-6----------8--8---3-3---|

I bet you?d only run
If you saw what goes inside our own
I bet you?d lead the way
If it were up to you to decide
But it?s not

Chorus: X2

Тональность:

Это должно быть в ТОП-листе! - Топ-лист композиций



Назад
Рекомендуем посмотреть другие песни исполнителя «Offspring»:

  • Комменты Fb ()
  • Комменты ВК



Добавить в Избранное Браузера
Сохранить здесь Очистить


x

0


+
-

+
-

-

Авторизация





Зарегистрироваться

M

Дата и время

  • 08:51:42
     

Социальные ссылки


Наши приложения

  • Muzbank App Play Market
  • Muzbank Amazon App