MUZBANK


МУЗЫКАЛЬНО-ИНФОРМАЦИОННЫЙ БАНК





OOffspring • Genocide (аккорды и текст - chords & lyrics)


485

Print

Видео «Genocide (Offspring)»

Видео клипы к песне подбираются автоматически сайтом youtube. Возможны некоторые несоответствия клипов песне.

↑ Спрятать рекламу ↑






 


Intro:  X4
E---------------------------------------------|
B---------------------------------------------|
G--------------------------------5-5-5--5--5--|
D|-5-5-5--5--5---5-5-5--5--5---3-3-3--3--3---5-5-5--5--5--|
A|-5-5-5--5--5---5-5-5--5--5---3-3-3--3--3---3-3-3--3--3--|
E|-3-3-3--3--3---3-3-3--3--3---1-1-1--1--1----------------|


Solo:   X2
E|-6-6--6-5-5-6-6-8-8-6--6-6-5---5--6--6-6-5---------------|
B------------------6-------------5-6--5--53/5-|
G----------------------------------------------|
D----------------------------------------------|

N.C.
Our lives run different ways 
Through the rain I see you in the sun 
Our star shines anyway 

End-verse:    X7       
E---------|
B---------|
G|---0-0-0-0--0-0-0---|
D---------|
If you wish upon it we are one


Pre-chorus:
e-----|
B-----|
G|---5--5--5--5---|
D|---5--5--5--5---|
A|---3--3--3--3---|
E-----|
One, two, three, four

Chorus:   X 2   *=play 7X
E--------|
B-*------|
G|----*---*-10----*--|
D|---5---8--10--10---|
A|---5---8---8--10---|
E|---3---6-------8---|

Dog eat dog
Every day
All about a man that we prey (?)
Dog eat dog
To get by
Hope you like my genocide

Intro:

Verse:
N.C.
I find it such a shame
Through the pain I see things as they are
We 

Тональность:

Это должно быть в ТОП-листе! - Топ-лист композиций



Назад
Рекомендуем посмотреть другие песни исполнителя «Offspring»:

  • Комменты Fb ()
  • Комменты ВК



Добавить в Избранное Браузера
Сохранить здесь Очистить


x

0


+
-

+
-

-

Авторизация





Зарегистрироваться

M

Дата и время

  • 02:35:40
     

Социальные ссылки


Наши приложения

  • Muzbank App Play Market
  • Muzbank Amazon App