MUZBANK


МУЗЫКАЛЬНО-ИНФОРМАЦИОННЫЙ БАНК





OOffspring • No Brakes (аккорды и текст - chords & lyrics)


465

Print

Видео «No Brakes (Offspring)»

Видео клипы к песне подбираются автоматически сайтом youtube. Возможны некоторые несоответствия клипов песне.

↑ Спрятать рекламу ↑





  Версия :
G|-------------------------------------------------------|
D|--9-9-----9⁄------------------12-12-12-12⁄11-11/12-12⁄-|
A|--7-7-----7⁄5-5----5/7-7----7/10-10-10-10⁄9--9-/10-10⁄-|
E|------------3-3----3/5-5----5/-------------------------|
Lay awake
I don't give a shit
If I even ever wake up in the morning
Down below
There's a pile of sin
Always waiting for a
Waiting for a warning
Burned at the stake
Inside I'm blistering
Not a whisper
Looking in you'd never know it
Miles below
I look up again
When you snap they say
Before you never show it

  Припев:
G|-----------------------------------------------------------|
D|----------------7-7---7---7--7⁄5-5---5---5--5-5-4--5--7-77-|
A|-5-5---5---5--5/5-5---5---5--5⁄3-3---3---3--3-3-2--3--5-55-|
E|-3-3---3---3--3/-------------------------------------------|

Someone said it's all right
Save it now, don't say it for my sake
Someone said it's all right
Faster now, you know I got no brakes
Lay awake
I don't give a shit
If I even ever wake up in the morning
Down below
There's a pile of sin
Always waiting for a
Waiting for a warning

  Bridge:
G|----------------------------------------------|
D|--9--9-7--9---12-12-11--9--9-7--9---14-14-12--|
A|--7--7-5--7---10-10-9---7--7-5--7---12-12-10--|
E|----------------------------------------------|
No brakes, no brakes

  Версия :
Fuses glow
Wounds festering
Till the wind comes up
And takes it to the last pow

Back and forth
Staring at the wall
This room's a cage
I know that something's got to give now

  Припев:
Someone said it's all right
Save it now, don't say it for my sake
Someone said it's all right
Faster now, you know I got no brakes
No brakes

  Outro:
G|-----------------------------------|
D|--9--9-7--9---12-12-11--9--9-7--9⁄-|
A|--7--7-5--7---10-10-9---7--7-5--7⁄-|
E|-----------------------------------|

Тональность:

Это должно быть в ТОП-листе! - Топ-лист композиций



Назад
Рекомендуем посмотреть другие песни исполнителя «Offspring»:

  • Комменты Fb ()
  • Комменты ВК



Добавить в Избранное Браузера
Сохранить здесь Очистить


x

0


+
-

+
-

-

Авторизация





Зарегистрироваться

M

Дата и время

  • 02:56:40
     

Социальные ссылки


Наши приложения

  • Muzbank App Play Market
  • Muzbank Amazon App