MUZBANK


МУЗЫКАЛЬНО-ИНФОРМАЦИОННЫЙ БАНК





OOffspring • Self Esteem (аккорды и текст - chords & lyrics)


802

Print

Видео «Self Esteem (Offspring)»

Видео клипы к песне подбираются автоматически сайтом youtube. Возможны некоторые несоответствия клипов песне.

↑ Спрятать рекламу ↑






1|--------------------------|
2|--------------------------|
3|---------7-7--------------|  x2
4|--4-4-4--5-5--7-7-7-------|
5|--2-2-2-------5-5-7--7-7--|
6|---------------------5-5--|


1|------------------------------|
2|------------------------------|
3|------------------------------|
4|------------------------------|
5|-5-5-5-5-5-5-5-5-5-5-5-7-7-7-7|
6|-3-3-3-3-3-3-3-3-3-3-3-5-5-5-5|
     * * * * * * * * * *

Басс: Играется 6 раз

1|--------------------------------------|
2|--------------------------------------|
3|-2-2-2-2-2---------5-5-5-5-5----------|
4|----------3-3-3-3-3---------5-5-5-5-5-|

Вступает гитара:

1|-----------|
2|-----------|
3|-9-9-9-9---|
4|-7-7-7-7---|
5|-----------|
6|-----------|


1|-------------------------------------------|
2|-------------------------------------------|
3|------------------------7-7-7-7-7----------|  x4
4|------------------------5-5-5-5-7----------|
5|-79-9-9-9----5-5-5-5-5-----------7-7-7-7-7|
6|-57-7-7-7----3-3-3-3-3---------- 5-5-5-5-5|
   * * * * *    * * * * * * * * * *

1|--------------------------|
2|--------------------------|
3|---------7-7--------------|  x4
4|--4-4-4--5-5--7-7-7-------|
5|--2-2-2-------5-5-7--7-7--|
6|---------------------5-5--|

Басс: Играется 2 разa

1|--------------------------------------|
2|--------------------------------------|
3|-2-2-2-2-2---------5-5-5-5-5----------|
4|----------3-3-3-3-3---------5-5-5-5-5-|


1|-------------------------------------------|
2|-------------------------------------------|
3|------------------------7-7-7-7-7----------|  x4
4|------------------------5-5-5-5-7----------|
5|-79-9-9-9----5-5-5-5-5-----------7-7-7-7-7|
6|-57-7-7-7----3-3-3-3-3---------- 5-5-5-5-5|


1|--------------------------|
2|--------------------------|
3|---------7-7--------------|  x4
4|--4-4-4--5-5--7-7-7-------|
5|--2-2-2-------5-5-7--7-7--|
6|---------------------5-5--|


1|-------------------------|
2|-------------------------|
3|-------------------------|  x6
4|-9-9-9-9-5-5-------7-7-7-|
5|-7-7-7-7-3-3-5-5-5-5-5-5-|
6|-------------3-3-3-------|


1|-------------------------------------------------|
2|-------------------------------------------------|
3|-------------------------------------------------|
4|--------9-9-9-5-5-7-7-7--------------------------|
5|--------7-7-7-3-3-5-5-5-7-7-5-5-5-5-5-5-5-5-5-5-5|
6|------------------------5-5-3-3-3-3-3-3-3-3-3-3-3|
                              * * * * * * * * * * *

  Басс: Играется 4 разa

1|--------------------------------------|
2|--------------------------------------|
3|-2-2-2-2-2---------5-5-5-5-5----------|
4|----------3-3-3-3-3---------5-5-5-5-5-|

1|-------------------------------------------|
2|-------------------------------------------|
3|------------------------7-7-7-7-7----------|  x4
4|------------------------5-5-5-5-7----------|
5|-79-9-9-9----5-5-5-5-5-----------7-7-7-7-7|
6|-57-7-7-7----3-3-3-3-3---------- 5-5-5-5-5|
   * * * * *    * * * * * * * * * *

1|--------------------------|
2|--------------------------|
3|---------7-7--------------|  x4
4|--4-4-4--5-5--7-7-7-------|
5|--2-2-2-------5-5-7--7-7--|
6|---------------------5-5--|

1|-------------------------|
2|-------------------------|
3|-------------------------|  x6
4|-9-9-9-9-5-5-------7-7-7-|
5|-7-7-7-7-3-3-5-5-5-5-5-5-|
6|-------------3-3-3-------|

1|-------------------------------------------------|
2|-------------------------------------------------|
3|-------------------------------------------------|
4|--------9-9-9-5-5-7-7-7--------------------------|
5|--------7-7-7-3-3-5-5-5-7-7-5-5-5-5-5-5-5-5-5-5-5|
6|------------------------5-5-3-3-3-3-3-3-3-3-3-3-3|
                              * * * * * * * * * * *

Тональность:

Это должно быть в ТОП-листе! - Топ-лист композиций



Назад
Рекомендуем посмотреть другие песни исполнителя «Offspring»:

  • Комменты Fb ()
  • Комменты ВК



Добавить в Избранное Браузера
Сохранить здесь Очистить


x

0


+
-

+
-

-

Авторизация





Зарегистрироваться

M

Дата и время

  • 03:29:55
     

Социальные ссылки


Наши приложения

  • Muzbank App Play Market
  • Muzbank Amazon App