MUZBANK



A MOST COMPLETE BANK OF MUSIC INFORMATION

МУЗЫКАЛЬНО-ИНФОРМАЦИОННЫЙ БАНК





OOffspring • Something To Believe In (аккорды и текст - chords & lyrics)


339

Print

Видео «Something To Believe In (Offspring)»

Видео клипы к песне подбираются автоматически сайтом youtube. Возможны некоторые несоответствия клипов песне.

↑ Спрятать рекламу ↑





Intro:

F(VIII) F(I) G(III) G#(IV)
C(III) D#(VI) A#(VI) F(VIII)

Verse:
e|-----------------------------------|
B|-----------------------------------|
G|----------8-8--3-3-3-3---------(5)-|
D|-6-6-6-6--8-8--3-3-3-3--3-3----(5)-|
A|-6-6-6-6--6-6--1-1-1-1--3-3----(3)-|
E|-4-4-4-4----------------1-1--------|

I believe that reality's gone
Disillusion's real
I believe that morality's gone
And there's nothing to feel
If you take the sacred things
The things that we hold dear
Empty promise is all you'll find
So give me something
Something to believe in

Chorus:
e|----------------|----------|
B|----------------|----------|
G|---10---8--13-8-|-----TREM-|
D|-3-10-6-8--13-8-|-3---3----|
A|-3-8--6-6--11-6-|-3---3----|
E|-1----4---------|-1---1----|
Something to believe in

Verse:
I believe in a changing of the guard
Put our feet on the ground
See it happen in your own background
Everything breaks down
Do you accept what you are told
Without even thinking
Throw it all and make your own
And give me something
Something to believe in

Chorus:
Something to believe in


N.C.
Where they lead
You will follow
Well I guess that's just the way it goes

Verse:
And if you look away
You'll be doing what they say
And if you look alive
You'll be singled out and tried
If you take home anything
Let it be your will to think
The more cynical you become
The better off you'll be

Come Out And Play


Intro:
e|-5-5-5-|Harmonics
B|-5-5-5-|
G|-5-5-5-|
D|-------|

You gotta keep 'em separated

e|-----------------------------|
B|-----------------------------|
G|-4-4-4---7---------------(4)-|
D|-4-4-4---7---4---7--(4)--(4)-|
A|-2-2-2->-5---4---7--(4)--(2)-|
E|-------------2->-5--(2)------|

Guitar2:
e|--------------------|
B|--------------------|
G|-11-11-11->-14--9-9-|  X4
D|--------------------|
A|--------------------|
E|--------------------|

После Guitar2 идёт это:
e|-------------------------|
B|-------------------------|
G|-------------------------|
D|-----1-2-4-2-1-----------| X4
A|-2-3-----------3-2-2-3-2-|
E|-------------------------|

Verse:
e|-----------------------------------|
B|-----------------------------------|
G|-4-4-4------------4-4-4---7--------|
D|-4-4-4-4--4---7---4-4-4---7--4---7-|
A|-2-2-2-4--4---7---2-2-2->-5--4---7-|
E|-------2--2->-5--------------2->-5-|

Like the latest fashion
Like a spreading disease
The kids are strappin' on their way to the classroom
Getting weapons with the greatest of ease
The gangs stake their own campus locale
And if they catch you slippin' then it's all over pal
If one guys colors and the others don't mix
They're gonna bash it up

Chorus
e|-----------------------------|
B|-----------------------------|
G|-9-9--12-12--11-11-11--------|
D|-9-9--12-12--11-11-11-9-9-9--|
A|-7-7--10-10--9--9--9--9-9-9--|
E|----------------------7-7-7--|

Hey - man you talkin' back to me?
Take him out
You gotta keep 'em separated
Hey - man you disrespecting me?
Take him out
You gotta keep 'em separated
Hey they don't pay no mind
If you're under 18 you won't be doing any time
Hey come out and play

Bridge:
e|-------------------------|
B|-------------------------|
G|-------------------------|
D|-----1-2-4-2-1-----------| X4
A|-2-3-----------3-2-2-3-2-|
E|-------------------------|

Verse:
By the time you hear the siren
It's already too late
One goes to the morgue and the other to jail
One guy's wasted and the other's a waste
It goes down the same as the thousand before
No one's getting smarter
No one's learning the score
Your never ending spree of death and violence and hate
Is gonna tie your own rope

Chorus:

Bridge:

Тональность:

Это должно быть в ТОП-листе! - Топ-лист композиций



Назад
Рекомендуем посмотреть другие песни исполнителя «Offspring»:

  • Комменты Fb ()
  • Комменты ВК



Добавить в Избранное Браузера
Сохранить здесь Очистить


x

0


+
-

+
-

-

Авторизация





Зарегистрироваться

M

Дата и время

  • 02:08:18
     

Социальные ссылки


Наши приложения

  • Muzbank App Play Market
  • Muzbank Amazon App
  • Muzbank Bitcoin13igjuWJj2R4cHiyZqP7Q3ggVvfXE9j82Q