MUZBANK


МУЗЫКАЛЬНО-ИНФОРМАЦИОННЫЙ БАНК





OOffspring • Walla Walla (аккорды и текст - chords & lyrics)


507

Print

Видео «Walla Walla (Offspring)»

Видео клипы к песне подбираются автоматически сайтом youtube. Возможны некоторые несоответствия клипов песне.

↑ Спрятать рекламу ↑






  Проигрыш:
G|------------------------------------------------------|
D|--3--3---3--3--3--2--0--------------------------------|
A|--------------------------------3--3---3--3--3--2--0--|
E|------------------------------------------------------|

G|---------------------------------------------|
D|----------------------------------------0--2-|
A|----------------0--2--3--3---3--3--3---------|
E|---3---3--3--3-------------------------------|

G|--------------------------------------------|
D|-3--3--3/5--3--2--0-------------------------|
B|-----------------------3--3--3--3--3--2--0--|
E|--------------------------------------------|

G|-----------------------------5--5--5|
D|------------------------5--5--5-----|
B|----------------0--2--3--3--3-------|
E|--3--3---3--3--3--------------------|

*= Play 10 times
%=Play 4 times, and release inbetween each
  time you strike the strings with the pick
/=Slide up

  Версия : - x4
E|-------------------------------|------------------------|
B|--------*----------------------|------*-----------------|
G|-*-------5-----*------%--------|-*-----3---*----%-------|
D|--3------5------5------10------|--3----3----3----10-----|
A|--3------3------5------10------|--3----5----3----10-----|
E|--1-------------3------8-------|--1---------5----8------

Goodbye my friend, you've messed up again
You're going to prison, you're off to the pen
You've gotten off easy so many times
But I guess no one told you how to get a life

The judge wasn't lenient like he was before
You got three to five and a kick out the door
The public defender really did try
Too little, too late, you didn't get a life

  Припев:
@=Play 9 times &=Play 12 times!=Play 12 times $=play 7 times
E|-------------------------------|-----------------------------|
B|------@-----------&------------|---!-------------------------|
G|--5----7--/--9--/--10----------|----5----*----$------$-------|
D|--5----7--/--9--/--10----------|----5-----5----10--/--13-----|
A|--3----5--/--7--/--8-----------|----3-----5----10--/--13-----|
E|-------------------------------|----------3----8---/--11-----|

Hey, in Walla
I'll see you in Walla Walla
Slap on the wrist? Well, not this time
Hey, in Walla
I'll see you in Walla Walla
Folsom prison is the destination
Hey, in Walla
I'll see you in Walla Walla
Slap on the wrist? Well, not this time
In the scheme of life, we're all just brothers
Rehabilitate with all the others
Well, I'll see ya

  Play Проигрыш:

  Pre-Припев:2:  - 2 (раза)
<  =Play 4 times
E|-----------------------|
B|------

Тональность:

Это должно быть в ТОП-листе! - Топ-лист композиций



Назад
Рекомендуем посмотреть другие песни исполнителя «Offspring»:

  • Комменты Fb ()
  • Комменты ВК



Добавить в Избранное Браузера
Сохранить здесь Очистить


x

0


+
-

+
-

-

Авторизация





Зарегистрироваться

M

Дата и время

  • 03:23:30
     

Социальные ссылки


Наши приложения

  • Muzbank App Play Market
  • Muzbank Amazon App