MUZBANK


МУЗЫКАЛЬНО-ИНФОРМАЦИОННЫЙ БАНК





OOffspring • Walla Walla (аккорды и текст - chords & lyrics)


375

Print

Видео «Walla Walla (Offspring)»

Видео клипы к песне подбираются автоматически сайтом youtube. Возможны некоторые несоответствия клипов песне.

↑ Спрятать рекламу ↑






 


PM-palm muted
M-mute string
/-slide up
-slide down

INTRO:
------
First guitar plays this.
E-------------------------------------------------------------------------|
B-------------------------------------------------------------------------|
G-------------------------------------------------------------------------|
D|-3-3--3-3-3-2-0------------------------------------------0-2-3-3--3-5-3-2-0---------|
A-----3-3--3-3-3-2-0------------0-2-3-3--3-3-3--------------------3-3--3-3|
E--------------------3-3--3-3-3-------------------------------------------|

E----------------------|
B----------------------|
G-----------5m--5m--5m-|
D-----------5m--5m--5m-|
A|-3-2-0------------0-2-3m--3m--3m-|
E|-------3-3--3-3-3----------------|

Second guitar plays this.
E-------------------------------------------------------------------------|
B-------------------------------------------------------------------------|
G|-10-10--10-10-10-10-10-5-5--5-5-5-5-5----------------5-5--5-5-5-5-5-10-10--10-10-10-|
D|-10-10--10-10-10-10-10-5-5--5-5-5-5-5-5-5--5-5-5-5-5-5-5--5-5-5-5-5-10-10--10-10-10-|
A|--8--8---8--8--8--8--8-3-3--3-3-3-3-3-5-5--5-5-5-5-5-3-3--3-3-3-3-3--8--8---8--8--8-|
E---------------------------3-3--3-3-3-3-3--------------------------------|

E---------------------------------------------------|
B---------------------------------------------------|
G|10-10-5-5--5-5-5-5-5----------------5-5--5-5-5-5-5-5m--5m--5m-|
D|10-10-5-5--5-5-5-5-5-5-5--5-5-5-5-5-5-5--5-5-5-5-5-5m--5m--5m-|
A|-8--8-3-3--3-3-3-3-3-5-5--5-5-5-5-5-3-3--3-3-3-3-3-3m--3m--3m-|
E----------3-3--3-3-3-3-3---------------------------|


PART 1:
-------
(Goodbye my friend...)
E-------------------------------------------------------------------------|
B-------------------------------------------------------------------------|
G-------5-5--5-5-5-5-5-5------------------5-5--5-5-5-5-5-5----------------|
D|-3-3--3-3-3-3-3-3-5-5--5-5-5-5-5-5-5-5--5-5-5-5-5-5-5-5--5-5-5-5-5-5-3-3--3-3-3-3-3-|
A|-3-3--3-3-3-3-3-3-3-3--3-3-3-3-3-3-5-5--5-5-5-5-5-5-3-3--3-3-3-3-3-3-3-3--3-3-3-3-3-|
E|-1-1--1-1-1-1-1-1------------------3-3--3-3-3-3-3-3------------------1-1--1-1-1-1-1-|
   __________________________________palm muted_____________________________________/

E-----------------------------------------------------|
B-----------------------------------------------------|
G|--5-5--5-5-5-5-5-5------------------5-5--5-5-5-5-5-5-5m--5m--5m-|
D|3-5-5--5-5-5-5-5-5-5-5--5-5-5-5-5-5-5-5--5-5-5-5-5-5-5m--5m--5m-|
A|3-3-3--3-3-3-3-3-3-5-5--5-5-5-5-5-5-3-3--3-3-3-3-3-3-3m--3m--3m-|
E|1------------------3-3--3-3-3-3-3-3-----------------------------|
  _____________________palm muted___________________/

CHORUS:
-------
(Hey in Walla I 

Тональность:

Это должно быть в ТОП-листе! - Топ-лист композиций



Назад
Рекомендуем посмотреть другие песни исполнителя «Offspring»:

  • Комменты Fb ()
  • Комменты ВК



Добавить в Избранное Браузера
Сохранить здесь Очистить


x

0


+
-

+
-

-

Авторизация





Зарегистрироваться

M

Дата и время

  • 10:50:20
     

Социальные ссылки


Наши приложения

  • Muzbank App Play Market
  • Muzbank Amazon App