MUZBANK


МУЗЫКАЛЬНО-ИНФОРМАЦИОННЫЙ БАНК





OOffspring • What Happened To You? (аккорды и текст - chords & lyrics)


621

Print

Видео «What Happened To You? (Offspring)»

Видео клипы к песне подбираются автоматически сайтом youtube. Возможны некоторые несоответствия клипов песне.

↑ Спрятать рекламу ↑





Key
---
* = play 4x
b = bend up to the pitch indicated
r = release bend back to the original pitch

intro

|---------------------------------------|
|---------------------------------------|
|-------10*------10*-----10*-----10-9-8-|
|-8-10--10*--10*-10*--8*-10*-10*-10-9-8-|
|-8-10---8*--10*--8*--8*--8*-10*--8-7-6-|
|-6--8--------8*------6*------8*--------|

verse

|---------------|
|---------------|
|-7*--------10*-|
|-7*-8*-10*-10*-|
|-5*-8*-10*--8*-|
|----6*--8*-----|

chorus

|---------------|
|---------------|
|-7*----10*-----|
|-7*-8*-10*-10*-|
|-5*-8*--8*-10*-|
|----6*------8*-|

solo - over verse chords

|-------------------------------------|
|-------------------------------------|
|-----------5--7--5--7b9r7--5---5--7--|
|------5--7-------------------7-------|
|-5--8--------------------------------|
|------------------------------------


Intro:
Bb            C                 F   Bb  F  C
 What in the world happened to you?

F  Bb  F E Eb

Verse 1:
   Dm               F          C
Before you started toking you used to have a brain
     Dm            F            C
But now you don't get even the simplest of things
   Dm            F          C
I draw a little picture or even use my hands
   Dm*    F*               C
I try to explain, but you just don't understand

* - приглушить аккорд

Chorus:
 Dm    F               C
(Hey, hey) Man you're really losing it
 Dm    F               C
(Hey, hey) And you've really done alot of junk now
 Dm    F               C
(Hey, hey) But you keep on abusing it
 Bb            C                 F   Bb  F  C
  What in the world happened to you?

F  Bb  F E Eb

Verse 2:
It's bad enough you do it, to do it to yourself
But taking someone with you well you know that's something else
I say `I'm not that kind of person, I'm not that kind of man
I try to explain, but you just don't understand

Chorus:

(Hey, hey) Man you're really losing it ...

Solo:
e|-------------------------------------|
B|-------------------------------------|
G|-----------5--7--5--7b9r7--5---5--7--|
D|------5--7-------------------7-------|
A|-5--8--------------------------------|
E|-------------------------------------|

e|---------------------------------|
B|--------------------------8------|
G|-----------5--7--5--7b9r7---7--5-|
D|------5--7-----------------------|
A|-5--8----------------------------|
E|---------------------------------|

e|-------------------------------------------------------10----|
B|-------------------------------------------------10-13----13-|
G|--------------------10--12--10--12b14r12--10--12-------------|
D|-------------10-12-------------------------------------------|
A|-------10-12-------------------------------------------------|
E|-10-13-------------------------------------------------------|

e|-10b11r10-13-10-13b15r13-15-13-15b17-15b17-15-13----------13-|
B|-------------------------------------------------15-13-15----|
G|-------------------------------------------------------------|
D|-------------------------------------------------------------|
A|-------------------------------------------------------------|
E|-------------------------------------------------------------|

Chorus:
(Hey, hey) Man you're really losing it ...

Verse4:
I might be sympathetic, or cut a little slack
I thought that you were willing to give a little back
But you do it in the morning, you do it in the night
You lie to refrain from just faceing your life

Verse5:
So I'll see you there tomorrow, you'll be gaking up again
I'll see you see you in a coffin by the time your wad is spent
I think of all the times that I tried to lend a hand
I try to explain but you just don't understand

Chorus:
(Hey, hey) Man you're really losing it ...
Bb            C
 What in the world happened to
Bb            C
 What in the world happened to
Bb            C                 F   Bb F F EbF
 What in the world happened to you?

Тональность:

Это должно быть в ТОП-листе! - Топ-лист композиций



Назад
Рекомендуем посмотреть другие песни исполнителя «Offspring»:

  • Комменты Fb ()
  • Комменты ВК



Добавить в Избранное Браузера
Сохранить здесь Очистить


x

0


+
-

+
-

-

Авторизация





Зарегистрироваться

M

Дата и время

  • 03:30:54
     

Социальные ссылки


Наши приложения

  • Muzbank App Play Market
  • Muzbank Amazon App