MUZBANK


МУЗЫКАЛЬНО-ИНФОРМАЦИОННЫЙ БАНК





OOne Dollar Short • Cartoons And Chalkboards (аккорды и текст - chords & lyrics)


492

Print

Видео «Cartoons And Chalkboards (One Dollar Short)»

Видео клипы к песне подбираются автоматически сайтом youtube. Возможны некоторые несоответствия клипов песне.

↑ Спрятать рекламу ↑





 


Artist: One Dollar Short
Song: Cartoons and Chalkboards
Tabbed By: Tim Bryant
       

Rhythms are not tabbed out cause they are easy to get from the song 

Intro 1: Guitar 1 & 2    ( is played with just one guitar on the cd but we play 
it with 2 cause it     
                                    sounds better)
e|---------------------------------------------------------------------------|
B|---------------------------------------------------------------------------|
G|------12----11-----7------9------------12-----11------7-----xxx----7-------|
D|------12----11-----7------9------------12-----11------7-----xxx----7-------|
A|------10-----9-----5------7------------10------9------5-----xxx----5-------|
E|---------------------------------------------------------------------------|

e|---------------------------------------------------------------------------|
B|---------------------------------------------------------------------------|
G|-------12----11----7------9-------------12~   -----------------------------|
D|-------12----11----7------9-------9-----12~   -----------------------------|
A|-------10-----9----5------7-------9-----10~   -----------------------------|
E|----------------------------------7----------------------------------------|

 Bit after the Intro (pre verse) : Guitar 1 (played soft) Guitar 2 silent

 

Тональность:

Это должно быть в ТОП-листе! - Топ-лист композиций



Назад
Рекомендуем посмотреть другие песни исполнителя «One Dollar Short»:

  • Комменты Fb ()
  • Комменты ВК



Добавить в Избранное Браузера
Сохранить здесь Очистить


x

0


+
-

+
-

-

Авторизация





Зарегистрироваться

M

Дата и время

  • 19:38:42
     

Социальные ссылки


Наши приложения

  • Muzbank App Play Market
  • Muzbank Amazon App