MUZBANK


МУЗЫКАЛЬНО-ИНФОРМАЦИОННЫЙ БАНК





OOne Minute Silence • A Day In The Light Of (аккорды и текст - chords & lyrics)


543

Print

Видео «A Day In The Light Of (One Minute Silence)»

Видео клипы к песне подбираются автоматически сайтом youtube. Возможны некоторые несоответствия клипов песне.

↑ Спрятать рекламу ↑





ONE MINUTE SILENCE --- A Day In The Light Of


Tuning: Dropped D

/GUITAR/

Verse.

E-----------------|	|-----------------|
B-----------------|	|-----------------|
G-----------------|	|-----------------|
D-5--7------------|	|-----------------|
A-----------------|	|0-0-0-0-0--------|
D-----------------|	|0-0-0-0-0--------|

Chorus.
 

E-----------------| 	|-----------------|
B-----------------| 	|-----------------|
G-----------------| 	|-----------------|
D---------h-------| 	|---------h-------|
A--------5-3-5----| 	|--------5-3-3----|
D-0-0-0-0---------|	|-0-0-0-0---------|
  --p.m--                 --p.m--

Chorus 2.

E-------------------------------|
B-------------------------------|
G-------------------------------|
D--p-----p-----p---p---p---p----|
A-1-0-0-3-0-0-3-0-5-0-6-0-7-0---|
D-1-0-0-3-0-0-3-0-5-0-6-0-7-0---|

Solo.

E-5-3-------3-------3-------3-------3--------------------------|
B----6-5-3----6-5-3---6-5-3---6-5-3---6-5-3--------------------|
G--------------------------------------------------------------|
D--------------------------------------------------------------|
A--------------------------------------------------------------|
D--------------------------------------------------------------|

E-----------------|-----------------|  |----------------| 
B-----------------|-----------------|  |----------------| 
G-----------------|-----------------|  |----------------| 
D-----------------|-----------------|  |----------------|
A---------5-3-3---|---------5-3-5---|  |----------------|
D-0-0-0-0---------|-0-0-0-0---------|  |-0-(0)----------|

E-----------------|-----------------|-----------------|-----------------| 
B-----------------|-----------------|-----------------|-------------15--| 
G-----------------|-----------------|-----------------|-----------------| 
D----------p------|-----------------|----------p------|----------p------| 
A---------5-3-p---|---------5-3-----|---------5-3-p---|---------5-3-----| 
D-0-0-0-0----5-3--|-0-0-0-0----5----|-0-0-0-0----5-3--|-0-0-0-0---------| 

E-----------------|Repeat this riff a bit and	|------------------|
B-----------------|then end on the following.	|------------------|
G-----------------|				|------------------|
D-----------------|				|------------------|
A-5-3-------------|				|6666666666666666-0|
D-----7-5-3-0-----|				|-----------------0|

/BASS:/

G|--------0-0--------------0-0--------------0-0--------------0-0-5h7-|
D|-0--7-0----/8-7---0--7-0-----5h7---0--7-0----/8-7---0--7-0---------|
A|-------------------------------------------------------------------|
D|-0----0-5-5-------0----0-5-5-------0----0-5-5-------0----0-5-5-----|
                                                                  (x2)


G|-----------0-0-----------------0-0-----|
D|-0000--7-0----/8-7---0000--7-0-----5h7-|
A|---------------------------------------|
D|-0000----0-5-5-------0000----0-5-5-----|


G|-----------0-0-----------------0-0-5h7-|
D|-0000--7-0----/8-7---0000--7-0---------|
A|---------------------------------------|
D|-0000----0-5-5-------0000----0-5-5-----|


G|-----------------------------------|
D|-----------------------------------|
A|-/55555555555555\-/55555555555555\-|
D|-----------------------------------|


G|--------------------------------------------|
D|----------------------------1212121212121212|  <--- Twelfth Fret
A|-/55555555555555\-/55555555/----------------|
D|--------------------------------------------|


G|----------------------------|---------------------|
D|----------------------------|---------------------|
A|------5h3---3-------5h3---5-|------5h3---3~~~-----|
D|-0000-----5----0000-----5---|-0000-----5-------5\-|
                           (x3)


G|-------------------------------|-------------------------------|
D|-------------------------------|-------------------------------|
A|-------------------------------|-------------------------------|
D|-1h0--0h4h3h0h4h3h0h4h3h0--666-|-1h0--0h4h3h0h4h3h0h4h3h0--111-|
                              (x3)


G|-------------------------------|-------------------------------|
D|-------------------------------|-------------------------------|
A|-------------------------------|-------------------------------|
D|-1h0--0h4h3h0h4h3h0h4h3h0--666-|-1h0--0h4h3h0h4h3h0h4h3h0--111-|
                              (x3)


*Now repeat the song from the start till the above point     ^^^
and end with -
                                 |-------------------------------|
                                 |-------------------------------|
                                 |-------------------------------|
                                 |-1h0--0h4h3h0h4h3h0h4h3h0--1-1-|

Then continue as follows...

G|------7---5-----------10-----|------7---5-----7-----10-|
D|---/7---7---7-8-7-/10----10--|---/7---7---7-8---/10----|
A|-----------------------------|-------------------------|
D|-0---------------------------|-0-----------------------|
                            (x3)


G|------7---5-----------10-----|------7---5-------10-----7-|
D|---/7---7---7-8-7-/10----10--|---/7---7---7-8-7----10----|
A|-----------------------------|---------------------------|
D|-0---------------------------|-0-----------------------0-|
                            (x2)


G|----7---5-----7-----10-|------7---5-----7-----10-|
D|-/7---7---7-8---/10----|---/7---7---7-8---/10----|
A|-----------------------|-------------------------|
D|-----------------------|-0-----------------------|


G|------7---5-----7-----10-|
D|---/7---7---7-8---/10----|
A|-------------------------|
D|-0-----------------------|


G|-7-7----------|-----------------------|
D|------7\------|-----------------------|
A|--------------|-----------------33-44-|
D|---------0-0--|-000-333-555-777-------|
             (x3)

G|-----------------------------|
D|-----------------------------|
A|------5h3---3-------5h3---5--|
D|-0000-----5----0000-----5----|
                            (x8)


G|---------------------------------------------------------|
D|---------------------------------------------------------|
A|------5h3---------5h3--------------5h3---------5h3-------|
D|-0000-----5h3--00-----5h3~~~--0000-----5h3--00-----(0)h5-|
                                                        (x4)

G|------------------------------------------|
D|------------------------------------------|
A|-5h3---------5h3---------5h3--------------|
D|-----5h4h3-0-----5h4h3-0-----5h3----------|
                                         (x3)

G|------------------------------------------|
D|------------------------------------------|
A|-6666666666666666-------------------------|
D|------------------0-----------------------|

 
I climbed up a tree to see if I could get to you
I climbed up a tree I crashed to the ground
I climbed up a tree to see if I could get to you
I climbed up a tree I'm not coming down
I can't let it be - the man on the street says
I can't let it be - we're doing fine
I can't let it be - I'm doing fine
I can't let it be - I'm doing fine
I climbed up a tree to see if I could get to you
I climbed up a tree crashed to the ground
I climbed up a tree to see if I could get to you
I climbed up a tree I'm not coming down

To read and write, not to read what's right
The difference can blind for life
Up into the light, the fight continues
I continue to fight, despite all I see
The blatant apathy, or just the illusion of it
Life sure knows how to pack a punch
The Bundys - not the Brady Bunch next door
X-rated hardcore step up take the floor
Tell me what you see
Mysterious ways just doesn't do it for me

[ Find more Lyrics at www.mp3lyrics.org/CLKS ]
I climbed up a tree to see if I could get to you
I climbed up a tree I crashed to the ground
I climbed up a tree to see if I could get to you
I climbed up a tree I'm not coming down
I can't let it be - the man on the street says
I can't let it be - we're doing fine
I can't let it be - I'm doing fine
I can't let it be - I'm doing fine
I climbed up a tree to see if I could get to you
I climbed up a tree crashed to the ground
I climbed up a tree to see if I could get to you
I climbed up a tree I'm not coming down

To fight for life, not to fight for life
The wrong road can lead to Christ
A day in the life of, in spite of
Those who have turned the lights off
To write me up as a write off
Wrong move - Wrong move
To write me up as a write off - Wrong move

As good as it gets
Get used to it
Nobody's coming for you
Who's coming for me? Guess

As good as it gets
Get used to it
Nobody's coming for you
Who's coming for me? Guess

Тональность:

Это должно быть в ТОП-листе! - Топ-лист композиций



Назад
Рекомендуем посмотреть другие песни исполнителя «One Minute Silence»:

  • Комменты Fb ()
  • Комменты ВК



Добавить в Избранное Браузера
Сохранить здесь Очистить


x

0


+
-

+
-

-

Авторизация





Зарегистрироваться

M

Дата и время

  • 20:23:05
     

Социальные ссылки


Наши приложения

  • Muzbank App Play Market
  • Muzbank Amazon App