MUZBANK


МУЗЫКАЛЬНО-ИНФОРМАЦИОННЫЙ БАНК





ООргазм Нострадамуса • Я не сифилитик (аккорды и текст - chords & lyrics)


1439

Print

Видео «Я не сифилитик (Оргазм Нострадамуса)»

Видео клипы к песне подбираются автоматически сайтом youtube. Возможны некоторые несоответствия клипов песне.

↑ Спрятать рекламу ↑





 


Intro: Riff1 Riff2 Riff3 Riff1
F5 G#5 A5
Я каждой ночью в небе черном
F5 G#5 A5
Ищу неведомый квазар
Я знаю - он, где край вселенной
Я даже карту набросал.

Riff2

И скорлупу с яйца счищая
Я думаю лишь об одном -
Как можно баб осеменять
воздушно - капельным путем.

Riff3

В столешнице лежит коробка
В коробке ваты и бинты
Вновь появляются стигматы
Моей священной правоты

Я верую, я твердо знаю,
Я выбрал правильный маршрут.
Плевать, что я косноязычен,
На пальцах объясню, Поймут!

Поймут поганцы, что напрасно
Все копошатся они тут.
Напрасно ходят на работу,
напрасно жаб своих ебут.

Riff2

Я саблевидные колени
Укрою стареньким трико.
Кровавый кал - это знамение
Жаль только, не поймет никто.

Riff3

Ну и пускай не понимают,
Надев повязку на глаза
Я прыгну ночью с крыши дома,
Я полечу на свой квазар!

Riff1:
E||---------------------------|------------------------------|
B||---------------------------|------------------------------|
G||---------------------------|------------------------------| x4
D||---------------------------|------------------------------|
A||--3--3--3--3--4---------|--3--3--3--3--4--4--4--4---|
E||--1--1--1--1--2---------|--1--1--1--1--2--2--2--2---|

Riff2:
|--8--8--8--8--8--8--------|--7--7--7--7--7--7--7--7--|
|----------------------9--9--|--------------------------|
|-----------------------------|--------------------------| x4
|-----------------------------|--------------------------|
|-----------------------------|--------------------------|
|-----------------------------|--------------------------|

Riff3:
|------------------------------|------------------------------|
|--6--6--6--6--6--6--6--7--|--6--6--6--6--6--6--6--4--|
|------------------------------|------------------------------| x4
|------------------------------|------------------------------|
|------------------------------|------------------------------|
|------------------------------|------------------------------|
 

Тональность:

Это должно быть в ТОП-листе! - Топ-лист композиций



Назад
Рекомендуем посмотреть другие песни исполнителя «Оргазм Нострадамуса»:

  • Комменты Fb ()
  • Комменты ВК



Добавить в Избранное Браузера
Сохранить здесь Очистить


x

0


+
-

+
-

-

Авторизация





Зарегистрироваться

M

Дата и время

  • 00:14:44
     

Социальные ссылки


Наши приложения

  • Muzbank App Play Market
  • Muzbank Amazon App