MUZBANK


МУЗЫКАЛЬНО-ИНФОРМАЦИОННЫЙ БАНК





OOsbourne Ozzy • Paranoid (аккорды и текст - chords & lyrics)


815

Print

Видео «Paranoid (Osbourne Ozzy)»

Видео клипы к песне подбираются автоматически сайтом youtube. Возможны некоторые несоответствия клипов песне.

↑ Спрятать рекламу ↑






Finished with my woman
'Cause she couldn't help me with my mind
People think I'm insane
Because I am frowning all the time

All day long I think of things
But nothing seems to satisfy
Think I'll lose my mind
If I don't find something to pacify

Can you help me?
Occupy my brain?
Oh, yeah

I need someone to show me
The things in life that I can't find
I can't see the things that make true happiness
I must be blind

Make a joke, and I will sigh
And you will laugh, and I will cry
Happiness I cannot feel
And love to me is so unreal

And so as you hear these words
Telling you now of my state
I tell you to enjoy life
I wish I could
But it's too late


Paranoid
 
as performed by OZZY OSBOURNE
from the album THE OZZMAN COMETH
written by O. Osbourne
 
 
intro (x2)
|-------------------------------------------------------------|
|-------------------------------------------------------------|
|-------------------------------------------------------------|
|-9-9-9-7-9----7-9-----9-9-9-7-9-----7-9----------------------|
|-7-7-7-----7-9----7-9-7-7-7-----7-9-----7-9------------------|
|-------------------------------------------------------------|

Verse 
|-------------------------------------------------------12h13-|
|-------------------------------------------------------------|
|-------------------------------------------------7-----------|
|-7-7--9--7-7--9--7-7--9--7-9-----7-7--9--7-7--9--5-7-9-------|
|-5-5--7--5-5--7--5-5--7-----7-9--5-5--7--5-5--7----5-7-------|
|-------------------------------------------------------------|
pm...     ...     ...             ...     ...

|-------------------------------------------------------------|
|-------------------------------------------------------------|
|-------------------------------------------------7-----------|
|-7-7--9--7-7--9--7-7--9--7-9-----7-7--9--7-7--9--5-7-9-------|
|-5-5--7--5-5--7--5-5--7-----7-9--5-5--7--5-5--7----5-7-------|
|-------------------------------------------------------------|
pm...     ...     ...             ...     ...

Post Verse  
|----------------16-18-16-------------------------------------|
|-------------------------15/9--------------------------------|
|--------------------------------------------------13/1-------|
|-9b--5---7--9b-----------------9b-5--7--9b-------------------|
|-7---3---5--7------------------7--3--5--7--------------------|
|-------------------------------------------------------------|
 

Verse Again
|-------------------------------------------------------12h13-|
|-------------------------------------------------------------|
|-------------------------------------------------7-----------|
|-7-7--9--7-7--9--7-7--9--7-9-----7-7--9--7-7--9--5-7-9-------|
|-5-5--7--5-5--7--5-5--7-----7-9--5-5--7--5-5--7----5-7-------|
|-------------------------------------------------------------|
pm...     ...     ...             ...     ...

|-------------------------------------------------------------|
|-------------------------------------------------------------|
|-------------------------------------------------7-----------|
|-7-7--9--7-7--9--7-7--9--7-9-----7-7--9--7-7--9--5-7-9-------|
|-5-5--7--5-5--7--5-5--7-----7-9--5-5--7--5-5--7----5-7-------|
|-------------------------------------------------------------|
pm...     ...     ...             ...     ...

Chorus 
|-------------------------------------------------------------|
|-------------------------------------------------------------|
|-------------------------------------------------------------|
|-9b--------------5---------------------7---------------------|
|-7---------------3---------------------5---------------------|
|-------------------------------------------------------------|
 

Тональность:

Это должно быть в ТОП-листе! - Топ-лист композиций



Назад
Рекомендуем посмотреть другие песни исполнителя «Osbourne Ozzy»:

  • Комменты Fb ()
  • Комменты ВК



Добавить в Избранное Браузера
Сохранить здесь Очистить


x

0


+
-

+
-

-

Авторизация





Зарегистрироваться

M

Дата и время

  • 16:11:10
     

Социальные ссылки


Наши приложения

  • Muzbank App Play Market
  • Muzbank Amazon App