MUZBANK


МУЗЫКАЛЬНО-ИНФОРМАЦИОННЫЙ БАНК





OOsbourne Ozzy • Perry Mason (аккорды и текст - chords & lyrics)


1213

Print

Видео «Perry Mason (Osbourne Ozzy)»

Видео клипы к песне подбираются автоматически сайтом youtube. Возможны некоторые несоответствия клипов песне.

↑ Спрятать рекламу ↑





On his way to dinner when it took him by suprise
And with one pull of the trigger he would vanish overnight
Dancing by the roadside, holding on for dear life
Then a gun from out of nowhere made a widow of his wife

I don't mind, single file down the runway
Feelin' fine, and I'll see you my friend
Over and over again

Who can we get on the case?
We need Perry Mason
Someone to put you in place
Calling Perry Mason,again,again

Riding painted horses, oh the kids they love it so
You can see it on their faces, how they love the wind to blow
Minding my own business like my mama always said
But if I don't try to help him they could wind up on the front page

I don't mind, draw the line then draw me an arrow
Feelin' fine, then I'll see you my friend
Over and over again

Who can we get on the case?
We need Perry Mason
Someone to put you in place
Calling Perry Mason again, again

Wake me when it's over, tell me it's all right
Just keep on talking baby, I've been doing this all night
How much did you give me, tell me it'll be all right 

And I'll see you my friend over and over again..
Who can we get on this case?
We need Perry Mason
Someone to put you in place
Calling Perry Mason, again, again, again, again



INTRO:
|----------------------5--|---------------------6---|
|----5-----------5--------|---5-----------5---------|
|--7-----7-----7-----7----|-7-----7-----7-----7-----|
|----------7--------------|---------7---------------|
|-------------------------|-------------------------|
|-------------------------|-------------------------|

Bass: (tuned half-step dwn)			   2x
gb-------------------------|--------------------------|
db---------------7-6-5-----|--------------7-6-5-------|
ab-5-0-3-5-0-3-5-------8-7-|5-0-3-5-0-3-5--------8-7--|
eb-------------------------|--------------------------|



Riff Chorus
|---------------------------------------------------------------------|
|-3----5----6----8--10--------------------------------AH--------------|
|-5^---7^---8^--10^-12^---------pick---\\\\----------9*~------------AH|
|-------------------------8-----scratch\\\\-10-10-10-----------7---7*~|
|-------------------------8------------\\\\-10-10-10-----------7------|
|-------------------------8-----------------10-10-10-----------7------|
                          >                  . >  .  >         >   >

|---------------------------------------------------------------------|
|-3----5----6----8--10--------------------------------AH--------------|
|-5^---7^---8^--10^-12^---------pick---\\\\----------9*~------------AH|
|-------------------------8-----scratch\\\\-10-10-10---------7-7-7-7*~|
|-------------------------8------------\\\\-10-10-10---------7-7-7----|
|-------------------------8-----------------10-10-10---------7-7-7----|
                          >                  . >  .  >       . > . >

Riff Verse
|-10---------------------------10-----------------------------------|
|-x----------------------------x------------------------------------|
|-7--7-------------------------7--7---------------------------------|
|----0----3/5--------6\5-3/5------0----3/5--------------------------|
|---------3/5--------6\5-3/5-----------3/5--------6---AH------------|
|------0--3/5---0-0--6\5-3/5-0------0--3/5---0-0--6-5-3*~~----------|
 PM    .        . .          .      .        . . 

Riff play for break before singing:
|-10---------------------------10-----------------------------------|
|-x----------------------------x------------------------------------|
|-7--7-------------------------7--7---------------------------------|
|----0----3/5--------6\5-3/5------0----3/5--------------------------|
|---------3/5--------6\5-3/5-----------3/5--------6-5-3-------------|
|------0--3/5---0-0--6\5-3/5-0------0--3/5---0-0--6-5-3-------------|
 PM    .        . .          .      .        . .      .




Riff PRe-Chorus "....I don't mind..."
|-----------------------------------------|---------------------------------------|
|-----------------------------------------|------------gradually------------------|
|-----------------------------7---5---7---|------------bend-and-------7---5---7---|
|-5-----------------0---0-()--7---5---7---|-5-----------release-0-()--7---5---7---|
|-5-5-5-5-5-5-------0---0-()--5---3---5---|-5-5-5-5-5-5-5^(6)r5-0-()--5---3---5---|
|-5-5-5-5-5-5-0-0-0-0-0-0-()--------------|-5-5-5-5-5-5-5^(6)r5-0-()--------------|
PM> . . . . . . . . > . >     >   >   >     > . . . . .         >     >   > >

|-----------------------------------------|-----------------------------------------|
|-----------------------------------------|-----------------------------------------|
|-----------------------------7---5---7---|------------AH---------------------------|
|-5-----------------0---0-()--7---5---7---|-10-10-10-10*~~--5-3-4-5-3-4-5-6-5-4-3-0-|
|-5-5-5-5-5-5-------0---0-()--5---3---5---|-10-10-10--------5-3-4-5-3-4-5-6-5-4-3-0-|
|-5-5-5-5-5-5-0-0-0-0-0-0-()--------------|-10-10-10--------5-3-4-5-3-4-5-6-5-4-3-0-|
PM> . . . . . . . . > . >     >   >   >     >  >  >  >



"Calling perry mason again             again     again "
|------------------------|-----------------------------|
|------------------------|--------AH-------------------|
|------AH----AH----------|--------9*~~--AH-------------|
|-3----3*~~--2*~~--AH----|--------------10*~~----------|
|-1----------------4*~~--|-8-----------------2--3--5-/-|
|------------------------|-8-----------------2--3--5-/-|
  >    >     >     >       >      >     >
"Wake me when it's over
|---------------------------------------------------------------------|
|---------------------------------------------------------------------|
|----------------------------10~~~~~~~-10h12p10-12^(14)~~~~~~14r12~~~~|
|-8-------------------------------------------------------------------|
|-8---------7--5-----2----8-------------------------------------------|
|-8---------7--5-----2----8-------------------------------------------|
  >         .  >     >    .  >
|---------------------------------------|
|------------------------------------10\|
|-15~~~~~~~~-14~~~-12~~~~~-9~~~~~~~-----|
|---------------------------------------|
|---------------------------------------|
|---------------------------------------|




Тональность:

Это должно быть в ТОП-листе! - Топ-лист композиций



Назад
Рекомендуем посмотреть другие песни исполнителя «Osbourne Ozzy»:

  • Комменты Fb ()
  • Комменты ВК



Добавить в Избранное Браузера
Сохранить здесь Очистить


x

0


+
-

+
-

-

Авторизация





Зарегистрироваться

M

Дата и время

  • 06:13:30
     

Социальные ссылки


Наши приложения

  • Muzbank App Play Market
  • Muzbank Amazon App