MUZBANK


МУЗЫКАЛЬНО-ИНФОРМАЦИОННЫЙ БАНК





PPantera • Hollow (аккорды и текст - chords & lyrics)


58

Print

Видео «Hollow (Pantera)»

Видео клипы к песне подбираются автоматически сайтом youtube. Возможны некоторые несоответствия клипов песне.

↑ Спрятать рекламу ↑





What′s left inside him?
Don′t he remember us?
Can′t he believe me?
We seemed like brothers
Talked for hours last night,
About what we want to be
I sit now with his hand in mine,
But, I know he can′t feel (feel)

No one knows, what′s done is done
It′s as if he were dead

I′m close with his mother,
And she cries endlessly
Lord, how we miss him,
At least what′s remembered
It′s so important to make best friends in life,
But, it′s hard when my friend sits with blank expressions

No one knows, what′s done is done
It′s as if he were dead

(He as hollow as I alone now)
(He as hollow as I alone now)
(He as hollow as I alone now)
(He as hollow as I alone)

He as hollow as I alone,
A shell of my friend,
Just flesh and bone
There′s no soul,
He sees no love
I shake my fists at skies above

Mad
At gods
Mad

He as hollow as I converse,
I wish he′d waken from this curse
Hear my words before it′s through,
I want to come in after you

My Best friend
My Best friend

Whoa, yeah 
Come back

(He as hollow as I alone now)
(He as hollow as I alone now)
 


*Vulgar Display Of Power
1992



Electric Guitar (clean)

Rhythm (clean)

|-----------------------------|--
|----0------0------0------0---|--
|---5-5----5-5----5-5----5-5--|--
|--2---2--2---2--2---2--2---2-|--
|-0------3-------------0------|--
|---------------3-------------|-0

||----------------------------------
||--0-----0-----0-----0------0-----0
||-5-5---5-5---5-5---5-5----5-5---5-
||2---2-2---2-----0-----0------0----
||------------3-----3------2-----2--
||-----0-----2-----2------3-----3---

-------------------------| 
------0------------------| 
5----5-5-----------------| 
-0--2---2----------------| 
-------------------------| 
---0-----0---------------| 




Pre Bridge

|---------------------------------
|---------------------------------
|---0------0------0---------------
|--4-4----4-4----4-4-------0--0---
|-2---2--2---2--2---2-----2-------
|0------0------0---------3---1--1-

||--|-------------------------------
||--|-------------------------------
||--|---0---0---0---0--0--0---------
||--|--5---4---2---2----------------
||--|-7---5---4---3---2-------------
||0-|--------------------3--1-0-----





Bridge

|---------------|-----------------
|---------------|-----------------
|---------------|-----------------
|2-2-2-4-5-6-7--|--2-2-2-7-8-9-10-
|2-2-2-4-5-6-7--|--2-2-2-7-8-9-10-
|0-0-0-2-3-4-5--|--0-0-0-5-6-7-8--

|||---------------------------------
|||---------------------------------
|||---------------------------------
|||---------------------------------
|||---------------------------------
|||0-8-0-0-6-0-0-8-0-0-6-0-0-6~-----



Lead (use neck pickup to get warm tone)

|--------------------------------
|------------------12-15~~-15/\--
|-----------12~~-12--------------
|--------14----------------------
|15~~-15-------------------------
|--------------------------------

||---------|---------------------
||15/\-12--|----------------12---
||---------|---------12~~-12---9-
||---------|-------14------------
||---------|15~~-15--------------
||---------|---------------------

----------------------------| 
11~~---9/\/\----------------| 
-----7-------10-------------| 
----------------------------| 
----------------------------| 
----------------------------| 



2nd Lead

|--------------------------------
|-8/\5-8~~--8/\5---5-----------5-
|----------------8---8-7-5-7-8---
|--------------------------------
|--------------------------------
|--------------------------------

||5----------------------------------------------------------| 
||-8^5---5-----------5---------------------------------------| 
||-----8---8-7-5-7-8---8-7-5---5-----------------------------| 
||---------------------------7---7---------------------------| 
||-----------------------------------7-6-565--3--------------| 
||-----------------------------------------------------------| 



|---------------------------------
|------20-20-20-------------20-20-
|-19/\----------19/\--19~~--------
|---------------------------------
|---------------------------------
|---------------------------------

||----------------------------------
||20-----------20/\-20-20/^---------
||---19/\-19~~----------------------
||----------------------------------
||----------------------------------
||----------------------------------

Тональность:

Это должно быть в ТОП-листе! - Топ-лист композиций



Назад
Рекомендуем посмотреть другие песни исполнителя «Pantera»:

  • Комменты Fb ()
  • Комменты ВК



Добавить в Избранное Браузера
Сохранить здесь Очистить


x

0


+
-

+
-

-

Авторизация





Зарегистрироваться

M

Дата и время

  • 02:18:58
     

Социальные ссылки


Наши приложения

  • Muzbank App Play Market
  • Muzbank Amazon App