MUZBANK


МУЗЫКАЛЬНО-ИНФОРМАЦИОННЫЙ БАНК





PPantera • War Nerve (аккорды и текст - chords & lyrics)


546

Print

Видео «War Nerve (Pantera)»

Видео клипы к песне подбираются автоматически сайтом youtube. Возможны некоторые несоответствия клипов песне.

↑ Спрятать рекламу ↑





 


band-pantera
song-war nerve
album the great southern trendkill
tabbed by godsmackthatkid


Intro                                           
|---------------------------------------------------|
|---------------------------------------------------|
|---------------------------------------------------|
|-/7b---7--5--2----8----7----5----2----/7b---7--5---|
|--x----x--x--2----x----x----x----2-----x----x--x --|
|-/5b---5--3--0----6----5----3----0----/5b---5--3---|
                             
|--------------------------------------------|
|--------------------------------------------|
|--------------------------------------------|
|-2--8--7--5--2----/7----7--5--2----8--7--5--|
|-2 

Тональность:

Это должно быть в ТОП-листе! - Топ-лист композиций



Назад
Рекомендуем посмотреть другие песни исполнителя «Pantera»:

  • Комменты Fb ()
  • Комменты ВК



Добавить в Избранное Браузера
Сохранить здесь Очистить


x

0


+
-

+
-

-

Авторизация





Зарегистрироваться

M

Дата и время

  • 10:40:51
     

Социальные ссылки


Наши приложения

  • Muzbank App Play Market
  • Muzbank Amazon App