MUZBANK


МУЗЫКАЛЬНО-ИНФОРМАЦИОННЫЙ БАНК





PPapa Roach • Between Angels And Insects (аккорды и текст - chords & lyrics)


455

Print

Видео «Between Angels And Insects (Papa Roach)»

Видео клипы к песне подбираются автоматически сайтом youtube. Возможны некоторые несоответствия клипов песне.

↑ Спрятать рекламу ↑






 


Intro:

1-----------------------------------------------------------
2 ----1----0-----3----1----0^1----1----0----3----1----0^1---
3 ----2----2-----2----2----2------2----2----2----2----2-----
4 --2----2----2-----2----2------3----3----3----3----3-------
5 ----------------------------------------------------------
6 ----------------------------------------------------------

1-----------------------------------------------------------
2-----1----0-----3----1----0^1----1----0----3----1----1^0---
3-----2----2-----2----2----2------2----2----2----2----2-----
4---0----0----0-----0----0------2----2----2----2----2-------
5-----------------------------------------------------------
6-----------------------------------------------------------

There 

Тональность:

Это должно быть в ТОП-листе! - Топ-лист композиций



Назад
Рекомендуем посмотреть другие песни исполнителя «Papa Roach»:

  • Комменты Fb ()
  • Комменты ВК



Добавить в Избранное Браузера
Сохранить здесь Очистить


x

0


+
-

+
-

-

Авторизация





Зарегистрироваться

M

Дата и время

  • 18:59:45
     

Социальные ссылки


Наши приложения

  • Muzbank App Play Market
  • Muzbank Amazon App