MUZBANK


МУЗЫКАЛЬНО-ИНФОРМАЦИОННЫЙ БАНК





PPapa Roach • Last Resort (аккорды и текст - chords & lyrics)


1280

Print

Видео «Last Resort (Papa Roach)»

Видео клипы к песне подбираются автоматически сайтом youtube. Возможны некоторые несоответствия клипов песне.

↑ Спрятать рекламу ↑






Papa Roach, Last resort 100% correct.
Tabbed by Gareth Keyes 
  
Tuning Dropped D if not this tab will sound b*ll*cks, pardon my French.



Main riff played through verse 2nd guitarist needed
-|-------------------------|--------------------------------------------------
-|-------------------------|--------------------------------------------------
-|-------------------------|--------------------------------------------------
-|-9-9--7-7--5-5--4-4--7-7-|--------------------------------------------------
-|-7-7--5-5--3-3--2-2--5-5-|--------------------------------------------------
-|-9-9--7-7--5-5--4-4--7-7-|--------------------------------------------------
                                                                              

the speedy part though verse that we all love
-|----------------------------------------------------------------------------
-|----------------------------------------------------------------------------
-|----------------------------------------------------------------------------
-|-----------9--------------------9--------------------9-------------------9--
-|-7-10-9-10---10-9-10----10-9-10---10-9-10----10-9-10---10-9-10---10-9-10----
-|---------------------12-------------------10-------------------9------------
                                                                              

----------|-------------------------------------------------------------------
----------|-------------------------------------------------------------------
----------|-------------------------------------------------------------------
----------|-----------9--------------------9--------------------9-------------
-10-9-10--|-7-10-9-10---10-9-10----10-9-10---10-9-10----10-9-10---10-9-10-----
----------|---------------------12-------------------10-----------------------
            pm .......................................................... 

------------------------------------------------------------------------------
------------------------------------------------------------------------------
------------------------------------------------------------------------------
-----------9--------------------9---------------9--------------------9--------
---10-9-10---10-9-10--7-10-9-10---10----10-9-10---10-9-10----10-9-10--10-9-10-
-9-----------------------------------12-------------------10------------------
 pm ----------------------------------------------------------------|         

------------------|-----------------------------------------------------------
------------------|-----------------------------------------------------------
------------------|-----------------------------------------------------------
----9999-12121212-|-----------------------------------------------------------
----9999-12121212-|-----------------------------------------------------------
-12-9999-12121212-|-----------------------------------------------------------
 

chorus  only play 1st part on 1st chorus                                                                     
------------------------------------------------------------------------------
------------------------------------------------------------------------------
----------------------------------------------111111111111111111111111111111--
-14-14-14-14-14-14-14-0-10-10-10-10-10-10-10-0-x-x-x-x-x-x-x-x-x-x-x-x-x-x-x--
-14-14-14-14-14-14-14-0-10-10-10-10-10-10-10-0-9-9-9-9-9-9-9-9-9-9-9-9-9-9-9--
-14-14-14-14-14-14-14-0-10-10-10-10-10-10-10-0-0-0-0-0-0-0-0-0-0-0-0-0-0-0-0--
                                                                              
---|--------------------------------------------------------------------------
---|--------------------------------------------------------------------------
-11|--------------------------------------------------------------------------
-x-|--------------------------------------------------------------------------   x2 
-9-|--------------------------------------------------------------------------
-0-|--------------------------------------------------------------------------
                                                                              
2nd part
--------------------------------------------------------------------------|---
--------------------------------------------------------------------------|---
--------------------------------------------------------------------------|---
-14-14-14-14-14-14-14-0-10-10-10-10-10-10-10-5-5-5-5-5-5-5-5-9-9-9-9-9-9-9|---   x2 
-14-14-14-14-14-14-14-0-10-10-10-10-10-10-10-5-5-5-5-5-5-5-5-9-9-9-9-9-9-9|---
-14-14-14-14-14-14-14-0-10-10-10-10-10-10-10-5-5-5-5-5-5-5-5-9-9-9-9-9-9-9|---
                                                                              

last part of 2nd chorus
-------------------------------------------------------------------------------
-------------------------------------------------------------------------------
-------------------7-7-7-7-7-7-7-7---12-12-12-12-12-12-12-12—-11111111111111111
-9-9-9-9-9-9-9-9---5-5-5-5-5-5-5-5---10-10-10-10-10-10-10-10---9-9-9-9-9-9-9-9-   x2
-7-7-7-7-7-7-7-7---5-5-5-5-5-5-5-5---10-10-10-10-10-10-10-10---9-9-9-9-9-9-9-9-
-9-9-9-9-9-9-9-9---5-5-5-5-5-5-5-5---10-10-10-10-10-10-10-10---9-9-9-9-9-9-9-9-



Cut my life into pieces
This is my last resort
Suffocation
No breathing
Don't give a fuck if I cut my arm, bleeding

This is my last resort

Cut my life into pieces
I've reached my last resort
Suffocation, no breathing
Don't give a fuck if I cut my arm, bleeding
Do you even care if I die bleeding?
Would it be wrong?, would it be right?
If I took my life tonight
Chances are that I might
Mutilation outta sight
And I'm contemplating suicide

'Cause I'm losing my sight
Losing my mind
Wish somebody would tell me I'm fine
Losing my sight
Losing my mind
Wish somebody would tell me I'm fine


I never realized I was spread too thin
Till it was too late
And I was empty within
Hungry!
Feeding on chaos
And living in sin
Downward spiral where do I begin?
It all started when I lost my mother
No love for myself
And no love for another.
Searching to find a love up on a higher level
Finding nothing but questions and devils

'Cause I'm losing my sight
Losing my mind
Wish somebody would tell me I'm fine
Losing my sight
Losing my mind
Wish somebody would tell me I'm fine
Nothing's alright
Nothing is fine
I'm running and I'm crying
I'm crying
I'm crying
I'm crying
I'm crying


I can't go on living this way

Cut my life into pieces
This is my last resort
Suffocation
No breathing
Don't give a fuck if I cut my arm, bleeding
Would it be wrong?
Would it be right?
If I took my life tonight
Chances are that I might
Mutilation outta sight
And I'm contemplating suicide


'Cause I'm losing my sight
Losing my mind
Wish somebody would tell me I'm fine
Losing my sight
Losing my mind
Wish somebody would tell me I'm fine
Nothing's alright
Nothing is fine
I'm running and I'm crying

I can't go on living this way
Can't go on
Living this way
Nothing's alright

Тональность:

Это должно быть в ТОП-листе! - Топ-лист композиций



Назад
Рекомендуем посмотреть другие песни исполнителя «Papa Roach»:

  • Комменты Fb ()
  • Комменты ВК



Добавить в Избранное Браузера
Сохранить здесь Очистить


x

0


+
-

+
-

-

Авторизация





Зарегистрироваться

M

Дата и время

  • 13:10:12
     

Социальные ссылки


Наши приложения

  • Muzbank App Play Market
  • Muzbank Amazon App