MUZBANK


МУЗЫКАЛЬНО-ИНФОРМАЦИОННЫЙ БАНК





PPapa Roach • Orange Drive Palms (аккорды и текст - chords & lyrics)


760

Print

Видео «Orange Drive Palms (Papa Roach)»

Видео клипы к песне подбираются автоматически сайтом youtube. Возможны некоторые несоответствия клипов песне.

↑ Спрятать рекламу ↑





Author/Artist: Papa Roach
Title: Orange Drive Palms
Album: Old Friends From Young Years
          
          -------------|-----|
          -------------|-----|
          -------------|-----|
          -----54---55-|-333-|
          -222----2-33-|-111-|
          -------------|-----|
          intro       end with
                                                                                        
          ---------------|------------------------------------------
          ---------------|------------------------------------------
          ---------------|------------------------------------------
          ------10-9-7-9-|---9-10-9-----9-10-9-10-9-----------------
          -7-10--8-7-5-7-|-7--------7-8-----------------------------
          -5-8-----------|------------------------------------------
          verse            interlude
 


I try, I lie, I try, super lie

Someone's sphincter in my eye
Kick it with that rebel cat, and I want it to be that
I'm feeling slightly down, I'm looking up from the ground
While confusion strains my mind, I contemplate this time
Thinking about a future, hemming it with a suture
Dog shitting on the sign, could the head below be mine?

Sign, could the head below be mine? [x3]

I try, I lie, super lie
Someone's sphincter in my eye
Remember the palms [x8]

Kick it with that rebel cat, and I want it to be that
I'm feeling slightly down, I'm looking up from the ground
While confusion strains my mind, I contemplate this time
Thinking about a future, hemming it with a suture
Dog shitting on the sign, could the head below be mine?

Sign, could the head below be mine? [x3]

Orange drive is where these palms lie
Making me sick, making me want to get high
Under the palms [x8]

Kick it with that rebel cat, and I want it to be that
I'm feeling slightly down, I'm looking up from the ground
While confusion strains my mind, I contemplate this time
Thinking about a future, hemming it with a suture
Dog shitting on the sign, could the head below be mine?

Sign, could the head below be mine? [x7]

I try, I try, super lie
Someone's sphincter in my eye
I try, I lie, I try
Someone's sphincter in my eye

Kick it with that rebel cat, and I want it to be that
I'm feeling slightly down, I'm looking up from the ground
While confusion strains my mind, I contemplate this time
Thinking about a future, hemming it with a suture
Dog shitting on the sign, could the head below be mine?

Sign, could the head below be mine? [x3]

I try, I lie, super lie
Someone's sphincter into my eye
[x5]

Orange drive is where these palms lie
Making me sick, making me want to get high
[3x]

Orange drive is where these palms lie
Someone's sphincter in my eye



 INTRO:
E-------------------
B-------------------
G---------------44--
D------5-4------44-- x4      
A--222------2---22--
D-------------------


CHORUS:                            X2
E----------------------------------------------------------------------------
B----------------------------------------------------------------------------
G--4------------------4-------------------------------------4----------------
D--4------------------4------------------4------------------4----------------
A--2--0--5--4--2--4---2--0--5--4--2--4---2--0--5--4--2--4---2--0--5--4--2--4-
D-----0--5--4--2--4------0--5--4--2--4---4--0--5--4--2--4------0--5--4--2--4-



VERSE:  " I Try... I Lie..."

E------------------------------
B------------------------------
G------------------------------          
D-------5-4--------44------44--X8         
A--222-------2222------22------
D------------------------------

 
CHORUS " Kick it with that rebel cat..." 


VERSE:

E------------------------------                           
B------------------------------                           
G------------------------------                           
D-------5-4--------44------44--X8         then play this right   
A--222-------2222------22------           after the 2nd verse... 
D------------------------------                                 



E---------------------------------------
B---------------------------------------
G--4444-44-44---------5555-55-55--------
D--3333-33-33---------4444-44-44--------X4     
A--2222-22-22---------3333-33-33--------
D--------------9/3----------------10/3--


CHORUS 

Little drum and base solo...then... 

no distortion:                                     

E--------------------------------------------      
B--------------------------------------------      
G--------------------------------------------
D----4------44----44-------5------55----55---X4 
A--22---2222----22-------22---2222----22-----
D--------------------------------------------



Heavy distortion:  

E------------------------------
B------------------------------
G------------------------------     "Side could the, below be mine!!!"      
D-------5-4--------44------44--X8          
A--222-------2222------22------
D------------------------------

 
Chorus

Verse again

Chorus again... then... 

E------------------------------   ---------------------
B------------------------------   ---------------------
G------------------------------   ---------4----------- repeat alot 
D----4-5-4--------4-5-4-5------   --0--4-5---5--0-4-5--
A--2-------2----3---------3-2--   ---------------------
D------------------------------   ---------------------


END

Тональность:

Это должно быть в ТОП-листе! - Топ-лист композиций



Назад
Рекомендуем посмотреть другие песни исполнителя «Papa Roach»:

  • Комменты Fb ()
  • Комменты ВК



Добавить в Избранное Браузера
Сохранить здесь Очистить


x

0


+
-

+
-

-

Авторизация





Зарегистрироваться

M

Дата и время

  • 22:34:23
     

Социальные ссылки


Наши приложения

  • Muzbank App Play Market
  • Muzbank Amazon App