MUZBANK


МУЗЫКАЛЬНО-ИНФОРМАЦИОННЫЙ БАНК





PParadise Lost • I See Your Face (аккорды и текст - chords & lyrics)


594

Print

Видео «I See Your Face (Paradise Lost)»

Видео клипы к песне подбираются автоматически сайтом youtube. Возможны некоторые несоответствия клипов песне.

↑ Спрятать рекламу ↑





 


ARTIST          Paradise Lost
> SONG          I See Your Face
> ALBMN         Draconian Times 
> MUSIC BY      Gregor Mackintosh, Nick Holmes & Aaron Aedy
> WORDS BY      Nick Holmes

Transcribed by Nikoteemu V.
Minor corrections by Markus Marjomaa (mmarjoma@mail.student.oulu.fi)
ADDED Corrections By Mark Graham(primetime@clara.net

Tune down 1 step

CLEAN TONE 	Aaron
|-------------------------------------------------------|
|-------0-----------------------------------------------|
|----9------------9----------------7---------7----------|
|--7---------10----------------7---------7--------------|
|--------10------------------5---------8----------------|
|-------------------------------------------------------|

Distortion	 Aaron
*d chord played 2nd time round last
|------------------------------------------------------------------|
|------------------------------------------------------------------|
|------------------------------------------------------------------|
|---7--------5-------5-------7-----3------3/-5-----5/-7---7---*(7)-|
|---7--------3-------5-------5-----3------3/-5-----5/-7---7----(5)-|
|---5--------3-------3-------5-----1------1/-3-----3/-5---5--------|

Distortion Greg
|--------------------------------------------------------------------|
|--------------------------------------------------------------------|
|---7----------7-------------------------------------------7---------|
|-7--10-9-7-----10-9-7h9-9-9 9- 9-9-10-10-10-10 9-9-9-9-7-----10-9-7-|
|--------------------------------------------------------------------|
|--------------------------------------------------------------------|

|---------------------------------------|
|---------------------------------------|
|-----7---------------------------------|
|-7-----10-9-5-----s0------------------|
|---------------------------------------|
|---------------------------------------|

Verses	Aaron
Listen for the strum
|----------------------------------------------------------------------------|
|----------------------------------------------------------------------------|
|----------------------------------------------------------------------------|
|--3---7-----9-------------------------7---5---5---7----3----3/-5---5/-7---7-|
|--3---7-----7----7--0---5--0--3--2----7---3---5---5----3----3/-5---5/-7---7*|
|--1---5-----7-------------------------5---3---3---5----1----1/-3---3/-5---5-|

|---------------------------------------------------------------------------|
|*--------------------------------------------------------------------------|
|-------------------------------------------------------9-----7-----5--4----|
|--7---10---9-7---7---7-9---10-9---5---10---9-7-----7-----7------7----------|
|*-------------------------------------------------------------------------*|
|---------------------------------------------------------------------------|

Greg solo

|--------------------------------------------------------------------------|
|*-10-10h12--8-------------------------------------------------------------|
|-----------------------7---5---9--7--7-5-5--------------------------------|
|-----------------------------------------------7--5-----------------------|
|*------------------------------------------------------------------------*|
|--------------------------------------------------------------------------|

---------------------------------------------
original

PARADISE LOST - I See Your Face
by Gregor Mackintosh, Nick Holmes & Aaron Aedy
from the album DRACONIAN TIMES

Transcribed by Nikoteemu Vaa 

Тональность:

Это должно быть в ТОП-листе! - Топ-лист композиций



Назад
Рекомендуем посмотреть другие песни исполнителя «Paradise Lost»:

  • Комменты Fb ()
  • Комменты ВК



Добавить в Избранное Браузера
Сохранить здесь Очистить


x

0


+
-

+
-

-

Авторизация





Зарегистрироваться

M

Дата и время

  • 18:07:39
     

Социальные ссылки


Наши приложения

  • Muzbank App Play Market
  • Muzbank Amazon App