MUZBANK



A MOST COMPLETE BANK OF MUSIC INFORMATION

МУЗЫКАЛЬНО-ИНФОРМАЦИОННЫЙ БАНК







    PParadise Lost • The Last Time (аккорды и текст - chords & lyrics)


    318

    Print

    Видео «The Last Time (Paradise Lost)»

    Видео клипы к песне подбираются автоматически сайтом youtube. Возможны некоторые несоответствия клипов песне.

    ↑ Спрятать рекламу ↑






     
    
    
    Rhy.Fig.1
       A                 D                 F
    ---------------|
    ---------------|
    ---------------|
    |------|-9-9-9-9-9-9-9-9-|-12-12-12-12-12-12-12-12-|
    ||-9-9-9-9-9-9-9-9-|-7-7-7-7-7-7-7-7-|-10-10-10-10-10-10-10-10-|
    ||-7-7-7-7-7-7-7-7---------------------|
       G
     ------||
     ------||
     ------||
     ------||
     |-7-7-7-7-7-7-7-7-||
     |-5-5-5-5-5-5-5-5-||
    
    Rhy.Fig.2
       E
    -||
    -||
    -||  Palm mute gets looser 
    ||-4-4-4-4-4-4-4-4-|-4-4-4-4-4-4-4-4-||  from begining to end.
    ||-4-4-4-4-4-4-4-4-|-4-4-4-4-4-4-4-4-||
    ||-2-2-2-2-2-2-2-2-|-2-2-2-2-2-2-2-2-||
      PM.-------------------------------|
    
    Riff 1
    
    -||
    -||
    -||
    -||
    ||-9-9-9-9-9-9-9-9-|-9-9-9-999999999-||
    -||
    
    Rhy.Fig.3
       A                                      F
    ----------------|
    ----------------|
    ----------------|
    ||-9---9---9---9-9-|---9-9---9/11-11/12-|-5---5---5---5-5-|---5-5---54-42-|
    ||-9---9---9---9-9-|---9-9---9/11-11/12-|-5---5---5---5-5-|---5-5---54-42-|
    ||-7---7---7---7-7-|---7-7---7/9---9/10-|-3---3---3---3-3-|---3-3---32-2
     

    Тональность:

    Это должно быть в ТОП-листе! - Топ-лист композиций



    Назад
    Рекомендуем посмотреть другие песни исполнителя «Paradise Lost»:

    • Комменты Fb ()
    • Комменты ВК



    Добавить в Избранное Браузера
    Сохранить здесь Очистить


    x

    0


    +
    -

    +
    -

    -

    Авторизация





    Зарегистрироваться

    M

    Дата и время

    • 05:06:12
       

    Социальные ссылки


    Наши приложения

    • Muzbank App Play Market
    • Muzbank Amazon App