MUZBANK


МУЗЫКАЛЬНО-ИНФОРМАЦИОННЫЙ БАНК





PPaul Mauriat • La Peregrinacion - В мире животных (аккорды и текст - chords & lyrics)


161

Print

Видео «La Peregrinacion - В мире животных (Paul Mauriat)»

Видео клипы к песне подбираются автоматически сайтом youtube. Возможны некоторые несоответствия клипов песне.

↑ Спрятать рекламу ↑





La Peregrinacion (Странники)
Из телепередачи "В мире животных"

     |--3--|  |--3--|  |--3--|  |--3--|   
     E  E  E  E  E  E  E  E  E  E  E  E   
E||-----0-----------0--0-----1--L--------|
B||--------3--1--3--------------------1--|
G||-----------2-----------2--------2-----|
D||-----------2--------0--------3--------|
A||--0-----------------------------------|
E||--------------------------------------|


  |--3--|  |--3--|  |--3--|  |--3--|     |--3--|  |--3--|  |--3--|  |--3--|   
  E  E  E  E  E  E  E  E  E  E  E  E     E  E  E  E  E  E  E  E  E  E  E  E   
--------------------0-----------------|--------------------------------------|
--1--------0--------------------------|-----1--0-----0--1--1-----3--L-----0--|
--------0--------0-----0--2-----0--2--|-----------2-----------2--------2-----|
-----0--------0--------------2--------|-----------2--------0--------3--------|
-----------2--------3-----------------|--0-----------------------------------|
--3-----------------------------------|--------------------------------------|


  |--3--|  |--3--|  |--3--|  |--3--|     |--3--|  |--3--|  |--3--|  |--3--|   
  E  E  E  E  E  E  E  E  E  E  E  E     E  E  E  E  E  E  E  E  E  E  E  E   
--------------------------------------|-----0-----------0--0-----1--L-----1--|
--------------------1-----------------|--------3--1--3-----------------------|
--2--------1--------------2--------2--|-----------2-----------2--------2-----|
--------2--------2-----2--------2-----|-----------2--------0--------0--------|
-----2--------2-----0--------3--------|--0-----------------------------------|
--0--------0--------------------------|--------------------------------------|


  |--3--|  |--3--|  |--3--|  |--3--|     |--3--|  |--3--|  |--3--|  |--3--|   
  E  E  E  E  E  E  E  E  E  E  E  E     E  E  E  E  E  E  E  E  E  E  E  E   
--3-----------------0-----------------|--------------------------------------|
--------0--3-----0--------1--------1--|-----1--0-----0--1--1-----3--L-----3--|
-----0--------0--------0--------0-----|-----------2-----------2--------2-----|
-----------------------------2--------|-----------2--------0--------3--------|
-----------2--------3-----------------|--0-----------------------------------|
--3-----------------------------------|--------------------------------------|


  |--3--|  |--3--|  |--3--|          3  |-3-|    3  3  3  |-3-|       3   
  E  E  E  E  E  E  E  E  E  Q       S. S S S E  E  E  S. S S S E  E  E   
--0-------------------------------|---------0-----------------1----------|
----------------------------------|-------1---------1-------3---------3--|
-----------1--------2-------------|-----2--------2--------2--------2-----|
--------2--------2-----2----------|--------------------0--------3--------|
-----2--------2-----0-----3--0----|--0--------3--------------------------|
--0--------0----------------------|--------------------------------------|


  3  |-3-|    3  3  3  |-3-|       3     3  |-3-|    3  3  3  |-3-|       3   
  S. S S S E  E  E  S. S S S E  E  E     S. S S S E  E  E  S. S S S E  E  E   
---------3-----------------0----------|---------0-----------------1----------|
-------0---------3-------1---------1--|-------1---------1-------3---------3--|
-----0--------0--------0--------0-----|-----2--------2--------2--------2-----|
-----------------------------2--------|--------------------0--------3--------|
-----------2--------3-----------------|--0--------3--------------------------|
--3-----------------------------------|--------------------------------------|


  3  |-3-|    3  3  3  |-3-|       3                        
  S. S S S E  E  E  S. S S S E  E  E     W                  
---------0-------4-------0-5-------0--|-------------------||
-------3------3--------1--------1-----|-------------------||
-----1-4------------------------------|-------------------||
-----------------------------7--------|-------------------||
--------------------0-----------------|--0----------------||
--0--------0--------------------------|-------------------||

Тональность:

Это должно быть в ТОП-листе! - Топ-лист композиций



Назад
Рекомендуем посмотреть другие песни исполнителя «Paul Mauriat»:

  • Комменты Fb ()
  • Комменты ВК



Добавить в Избранное Браузера
Сохранить здесь Очистить


x

0


+
-

+
-

-

Авторизация





Зарегистрироваться

M

Дата и время

  • 17:18:28
     

Социальные ссылки


Наши приложения

  • Muzbank App Play Market
  • Muzbank Amazon App