MUZBANK


МУЗЫКАЛЬНО-ИНФОРМАЦИОННЫЙ БАНК





PPaul Simon • Time It Was (аккорды и текст - chords & lyrics)


507

Print

Видео «Time It Was (Paul Simon)»

Видео клипы к песне подбираются автоматически сайтом youtube. Возможны некоторые несоответствия клипов песне.

↑ Спрятать рекламу ↑





"C" form E 2nd form
|--------4---|----4---5---|----4---5---|----4---5---|------------ =

|----5-------|7-----------|7-----------|7-----------|------------|
|4-------4---|----4---6---|----4---6---|----4---6---|------------|
|----6-------|7-----------|7-----------|7-----------|------------|
|7-----------|------------|------------|------------|------------|
|------------|------------|------------|------------|------------|

"C" form E "E"form =

(1) =

|----4---5---|4-----------|----4-------|------------|------------|
|7-----------|----5-------|5-------5---|7---5-------|----7---5---|
|----4---6---|4-------4---|----4-------|--------6--5|------------|
|7-----------|----6-------|6-------6---|7-------7-7-|7-----------|
|------------|--------7---|------------|--------7---|------------|
|------------|------------|------------|------------|------------|

"C" form E Back to the top
|4-----------|------------||
|----5-------|5-----------||
|4-------4---|------------||
|----6-------|6-----------||
|--------7---|------------||
|------------|------------||

(2)
||------------||
||5-----------||
||----4-------||
||6-----------||
||----7-------||
||--------0---||

Тональность:

Это должно быть в ТОП-листе! - Топ-лист композиций



Назад
Рекомендуем посмотреть другие песни исполнителя «Paul Simon»:

  • Комменты Fb ()
  • Комменты ВК



Добавить в Избранное Браузера
Сохранить здесь Очистить


x

0


+
-

+
-

-

Авторизация





Зарегистрироваться

M

Дата и время

  • 10:36:18
     

Социальные ссылки


Наши приложения

  • Muzbank App Play Market
  • Muzbank Amazon App