MUZBANK


МУЗЫКАЛЬНО-ИНФОРМАЦИОННЫЙ БАНК





PPerfect Circle • Magdalena (аккорды и текст - chords & lyrics)


482

Print

Видео «Magdalena (Perfect Circle)»

Видео клипы к песне подбираются автоматически сайтом youtube. Возможны некоторые несоответствия клипов песне.

↑ Спрятать рекламу ↑





 


magdalena
tuning: down one and one half steps (low to high: C# F# B E G# C#)
tabbed by thebottom - daria6666@hotmail.com

h=hammer on
p=pull off
b=bend

Intro: 
|------------------------------------------------
|--------------------0--5------------------------
|--4-3--4h6-4--4h6-4------4--3-3--4h6-4--4h6-4---
|------------------------------------------------
|------------------------------------------------
|------------------------------------------------

|--16--12-----------------------------------16--16h17p16--12---|
|---------10-12-10-12--14-12-14-12-----------------------------|
|-----------------------------------9-9-9-9--------------------|
|--------------------------------------------------------------|
|--------------------------------------------------------------|
|--------------------------------------------------------------|

(0:38) *
|-------------|
|-------------|
|-------------|
|--2-----5----|
|--2-----5----|
|--0-----3----|
* listen to the recording. there are some places you don 

Тональность:

Это должно быть в ТОП-листе! - Топ-лист композиций



Назад
Рекомендуем посмотреть другие песни исполнителя «Perfect Circle»:

  • Комменты Fb ()
  • Комменты ВК



Добавить в Избранное Браузера
Сохранить здесь Очистить


x

0


+
-

+
-

-

Авторизация





Зарегистрироваться

M

Дата и время

  • 17:48:58
     

Социальные ссылки


Наши приложения

  • Muzbank App Play Market
  • Muzbank Amazon App