MUZBANK



A MOST COMPLETE BANK OF MUSIC INFORMATION

МУЗЫКАЛЬНО-ИНФОРМАЦИОННЫЙ БАНК







    ППесни из фильмов Квентина Тарантино • Misirlou (аккорды и текст - chords & lyrics)


    556

    Print

    Видео «Misirlou (Dick Dale) (Песни из фильмов Квентина Тарантино)»

    Видео клипы к песне подбираются автоматически сайтом youtube. Возможны некоторые несоответствия клипов песне.

    ↑ Спрятать рекламу ↑





    Tempo:  Presto con huevos!
    (Doublepick all guitar passages unless otherwise indicated.)
    
    E|---------|---------|---------|
    B|---------|---------|---------|
    G|---------|---------|---------|
    D|---------|---------|---------|
    A|---------|---------|---------|
    E|-#-#-7s0-|-0-0-0-0-|-0-0-0-0-|
    
                 "hu!" "hu!"  "haa!"
    E|-----------|------------|---------|--------|
    B|-----------|------------|---------|--------|
    G|-----------|------------|---------|--------|
    D|-----------|------------|---------|--------|
    A|-----------|------------|---------|--------|
    E|-0-0h1-4-5-|-7-7h8-11-8-|-7-7-7-7-|7-7-s-0-|
    
    
    E|-----------|------------|---------|---------|
    B|-----------|------------|---------|---------|
    G|-----------|------------|---------|---------|
    D|-----------|------------|---------|---------|
    A|-----------|------------|---------|---------|
    E|-0-0h1-4-5-|-7-7h8-11-8-|-7-7-7-7-|-7-7-7-7-|
    
    
    E|-----------|-----------|---------|---------|
    B|-----------|-----------|---------|---------|
    G|-----------|-----------|---------|---------|
    D|-----------|-----------|---------|---------|
    A|-----------|-----------|---------|---------|
    E|-8-7h8-7-5-|-7-5h7-5-1-|-4-4-4-4-|-4-4-4-4-|
    
                               1pick
    E|-------------|-----------|---------|-7sssss0-|
    B|-------------|-----------|---------|---------|
    G|-------------|-----------|---------|---------|
    D|-------------|-----------|---------|---------|
    A|-------------|-----------|---------|---------|
    E|-5h8-7h8-7-5-|-7-5h7-5-#-|-1-4-0-0-|---------|
    
    
    E|-0-0h1-4-5-|-7-7h8-11-8-|-7-7-7-7-|7-7-7s0-|
    B|-----------|------------|---------|--------|
    G|-----------|------------|---------|--------|
    D|-----------|------------|---------|--------|
    A|-----------|------------|---------|--------|
    E|-----------|------------|---------|--------|
    
    
    E|0-0h1-4-5-|-7-7h8-11-8-|-7-7-7-7-|-7-7-7-7-|
    B|----------|------------|---------|---------|
    G|----------|------------|---------|---------|
    D|----------|------------|---------|---------|
    A|----------|------------|---------|---------|
    E|----------|------------|---------|---------|
    
    
    E|-8-7h8-7-5-|-7-5h7-5-1-|-4-4-4-4-|-4-4-4-4-|
    B|-----------|-----------|---------|---------|
    G|-----------|-----------|---------|---------|
    D|-----------|-----------|---------|---------|
    A|-----------|-----------|---------|---------|
    E|-----------|-----------|---------|---------|
    
                             singlepick
    E|-8-7h8-7-5-|-7-5h7-5-#-|-1-4-0-0-|
    B|-----------|-----------|-------0-|
    G|-----------|-----------|---------|
    D|-----------|-----------|---------|
    A|-----------|-----------|---------|
    E|-----------|-----------|---------|
    
      trumpet solo (2pick all, or 1pick vibrato & 2pick trills):
    
    E|-----------------|-----|----------|-----|---------|---------|
    B|-----------------|-----|----------|-----|---------|---------|
    G|-----------------|-----|----------|-----|---------|---------|
    D|-----------------|-----|----------|-----|---------|---------|
    A|-----------------|-0===|==------0-|-2===|==-#-0h2-|-3==-2h3-|
    E|-#-0-1-3-4-0-1-3-|-----|---55p4---|-----|---------|---------|
    
    
    E|-------|-----|-----|---------------|-----------------|-----|
    B|-------|-----|-----|---------------|-----------------|-----|
    G|-------|-----|-----|---------------|-----------------|-----|
    D|-------|-----|-----|---------------|-----------------|-----|
    A|-6==-6-|-7===|====-|-#-8p7h8-777-5-|-777-7p5h7-555-3-|-2===|
    E|-------|-----|-----|---------------|-----------------|-----|
    
    
    E|-----|--------------|---------|-------|-----------------|
    B|-----|--------------|---------|-------|-----------------|
    G|-----|--------------|---------|-------|-----------------|
    D|-----|--------------|---------|-------|-----------------|
    A|2===-|#-5p3h5-333-2-|-2-0-2-0-|-------|---------------0-|
    E|-----|--------------|---------|-1-0==-|-0-1-3-4-0-1-3---|
    
    
    Guitar, basically repeating the trumpet passage, here tabbed
    to indicate doublepicking:
    
                                      hu!hu!          hu!
    E|---------|-----------|---------|-----------|-----------|
    B|---------|-----------|---------|-----------|-----------|
    G|---------|-----------|---------|-----------|-----------|
    D|---------|-----------|---------|-----------|-----------|
    A|-0-0-0-0-|-0-0-0-----|-2-2-2-2-|-2-2-2-0h2-|-3-3-3-2h3-|
    E|---------|-------4h5-|---------|-----------|-----------|
    
       hu!
    E|-----------|---------|---------|-----------|-----------|---------|
    B|-----------|---------|---------|-----------|-----------|---------|
    G|-----------|---------|---------|-----------|-----------|---------|
    D|-----------|---------|---------|-----------|-----------|---------|
    A|-6-6-3h6-6-|-7-7-7-7-|-7-7-7-7-|-8-7h8-7-5-|-7-5h7-5-3-|-2-2-2-2-|
    E|-----------|---------|---------|-----------|-----------|---------|
    
                                1pick      piano enters
    E|---------|-------------|---------|---------|---------|
    B|---------|-------------|---------|---------|---------|
    G|---------|-------------|---------|---------|---------|
    D|---------|-------------|---------|---------|---------|
    A|-2-2-2-2-|-5-3h5-3-2p0-|-#-0-2-0-|---------|---------|
    E|---------|-------------|---------|-1-0-0-0-|-0-0-0-0-|
    

    Тональность:

    Это должно быть в ТОП-листе! - Топ-лист композиций



    Назад
    Рекомендуем посмотреть другие песни исполнителя «Песни из фильмов Квентина Тарантино»:

    • Комменты Fb ()
    • Комменты ВК



    Добавить в Избранное Браузера
    Сохранить здесь Очистить


    x

    0


    +
    -

    +
    -

    -

    Авторизация





    Зарегистрироваться

    M

    Дата и время

    • 03:42:02
       

    Социальные ссылки


    Наши приложения

    • Muzbank App Play Market
    • Muzbank Amazon App