MUZBANK


МУЗЫКАЛЬНО-ИНФОРМАЦИОННЫЙ БАНК





ППесни из кино и мультфильмов • В лесу родилась елочка (аккорды и текст - chords & lyrics)


1977

Print

Видео «В лесу родилась елочка (Песни из кино и мультфильмов)»

Видео клипы к песне подбираются автоматически сайтом youtube. Возможны некоторые несоответствия клипов песне.

↑ Спрятать рекламу ↑





F    C7    F
В лесу родилась ёлочка, 
	   B    Am7  F7
В лесу она росла.
 B     Bm      F
Зимой и летом стройная, 
 G7 C7   F
Зелёная была.


Метель ей пела песенку:
«Спи, ёлочка, бай-бай!»
Мороз снежком укутывал:
«Смотри, не замерзай!»

Трусишка зайка серенький
Под ёлочкой скакал.
Порою волк, сердитый волк,
Рысцою пробегал.

Чу! Снег по лесу частому
Под полозом скрипит.
Лошадка мохноногая
Торопится, бежит.

Бежит лошадка с дровнями,
А в дровнях старичок.
Срубил он нашу ёлочку
Под самый корешок.

Теперь ты здесь, нарядная,
На праздник к нам пришла.
И много-много радости
Детишкам принесла.

Проигрыш:

1|----5-5-3-5---------5-5-6---8--8-----6-6-5-3-----------------|
2|------------6------------------------------------------------|
3|--5-----------5-5-5-------5------7-7-------------------------|
4|-------------------------------------------------------------|
5|-------------------------------------------------------------|
6|-------------------------------------------------------------|

1|-----5-5-3-5----8-----6-6-5-3------5-5-3-5-------------------|
2|-6------------6---------------6-----------6------------------|
3|---5--------------7-7-----------5----------------------------|
4|-------------------------------------------------------------|
5|-------------------------------------------------------------|
6|-------------------------------------------------------------|


Тональность:

Это должно быть в ТОП-листе! - Топ-лист композиций



Назад
Рекомендуем посмотреть другие песни исполнителя «Песни из кино и мультфильмов»:

  • Комменты Fb ()
  • Комменты ВК



Добавить в Избранное Браузера
Сохранить здесь Очистить


x

0


+
-

+
-

-

Авторизация





Зарегистрироваться

M

Дата и время

  • 09:10:54
     

Социальные ссылки


Наши приложения

  • Muzbank App Play Market
  • Muzbank Amazon App