MUZBANK


МУЗЫКАЛЬНО-ИНФОРМАЦИОННЫЙ БАНК





ППесни из кино и мультфильмов • Здравствуй, универ! (аккорды и текст - chords & lyrics)


849

Print

Видео «Здравствуй, универ! (Песни из кино и мультфильмов)»

Видео клипы к песне подбираются автоматически сайтом youtube. Возможны некоторые несоответствия клипов песне.

↑ Спрятать рекламу ↑






 


Вступление: G C G C
E-----------------------|------------------------|
B------3-1--1-1-------|----------3--1---------|
G--0-------------------|-------0--------------- |
D-----------------------|----0------------------|
A--------------3-3-----|------------------------|
E-----------------------|-3--------------------- |
____________________________________
Куплет: G C
E------------------------|----------------------|
B-------3---------1-----|----------------------|
G----0---------0--------|----------------------| x3
D------------------------|----------------------|
A------------3-----------|----------------------|
E--3---------------------|----------------------|
Я хотел написать эту песню,
О друзьях и общаге,
Я хотел написать эту песню, 
H7 Em
E--------------------------|
B----------0-----------0--|
G------2-----------0------|
D--------------------------|
A---2------------2--------|
E--------------------------|
Только все получались шняги,
 
C H7
E-------------------------|
B--------1-------------0-|
G-----0-----------2------|
D-------------------------|
A--3----------2----------|
E-------------------------|
И гитара с мечтой улетела,
Em C
E---------------0----|
B---------0----1-----|
G-----0--------0-----|
D-------------- 2----|
A--2-----------3-----|
E---------------0----|
А еще прилетело мне в глаз...
G C
Но друзья помогли мне в проблеме,
D
И припев этот этот новый о нас.

Пре-припев:
C H7 Em
Беды растворятся, словно в кипятке лапша, 
С D G
И я знаю точно, будем вместе мы всегда, 
H7 Em C D G
И в уютном блоке, так знакомо скрипнет дверь, 
H7 Em
До свиданья мама, 
C D
Здравствуй, УНИВЕР!

Припев:
C
К черту все запары,
H7 Em
До диплома далеко,
Em
Не пойдем на пары,
C D G
Нам в общаге хорошо, 
H7 Em C D G
Всё тебе по силам, ты в мечту свою поверь, 
H7 Em
До свиданья мама, 
C D G
Здравствуй, УНИВЕР!


Я хотел написать эту песню,
О друзьях и общаге, (играется так же, как в начале куплета)
Я хотел написать эту песню,
И я её написал...
 

Тональность:

Это должно быть в ТОП-листе! - Топ-лист композиций



Назад
Рекомендуем посмотреть другие песни исполнителя «Песни из кино и мультфильмов»:

  • Комменты Fb ()
  • Комменты ВК



Добавить в Избранное Браузера
Сохранить здесь Очистить


x

0


+
-

+
-

-

Авторизация





Зарегистрироваться

M

Дата и время

  • 09:07:17
     

Социальные ссылки


Наши приложения

  • Muzbank App Play Market
  • Muzbank Amazon App