MUZBANK


МУЗЫКАЛЬНО-ИНФОРМАЦИОННЫЙ БАНК





PPink Floyd • Anybody (аккорды и текст - chords & lyrics)


507

Print

Видео «Anybody (Pink Floyd)»

Видео клипы к песне подбираются автоматически сайтом youtube. Возможны некоторые несоответствия клипов песне.

↑ Спрятать рекламу ↑





Learnin играть 8 раз;

E|-------------|------0--------|------0--------|------0--------|
B|-------------|----1---1------|----1---1------|----1---1------|
G|----2-------2|--2-------2---2|--2-------2---2|--2-------2---2|
D|-------------|2-----------2--|3-----------3--|4-----------4--|
A|0-------0----|---------------|---------------|---------------|
E|-------------|---------------|---------------|---------------|

E|------0--------|------0------0|------0------0|--------0------|
B|----1---1------|----1------1--|----1------1--|------1--------|
G|--2-------2---2|--2------2----|--2------2----|----2-------2--|
D|3-----------3--|2------0------|--------------|--2-------2---2|
A|---------------|--------------|3------2------|0--------------|
E|---------------|--------------|--------------|---------------|

E|-------------|------0-------|---------------|------0---------|
B|----1--------|----1---1-----|-----1---------|----1---1-------|
G|--2---2------|--2-------2---|---2---2---2---|--2-------2---2-|
D|2-------2---2|2-----------2-|-2-------2---2-|2-----------2---|
A|-------------|--------------|---------------|----------------|
E|-------------|--------------|---------------|----------------|

E|------0--------|------0--------|------0-------|-------------0|
B|----1---1------|----1---1------|----1---1-----|----1------1--|
G|--2-------2---2|--2-------2---2|--2-------2--2|--2------2----|
D|3-----------3--|4-----------4--|3----------3--|3----2-0------|
A|---------------|---------------|--------------|--------------|
E|---------------|---------------|--------------|--------------|

E|------0--------|--------0------|-------------|--------0------|
B|----1---1------|------1--------|------1------|------1---1----|
G|--2-------2----|----2-------2--|----2---2----|----2-------2--|
D|0--------------|--2-------2---2|--2-------2-2|--2-----------2|
A|------------3-2|0--------------|0------------|0--------------|
E|---------------|---------------|-------------|---------------|

E|--------0-|--------0-------|----------------|--------0-------|
B|------1---|------1---1-----|------1-3-1-----|------1---1---0-|
G|----2-----|----0-------0---|----0-------2-0-|----2-------2---|
D|--2-------|2-2-----------2-|--0-------------|--2-------------|
A|0---------|3---------------|2---------------|0---------------|
E|----------|----------------|----------------|----------------|

E|-------------|--------0------|---------------|--------0------|
B|5-0-3-0-1-0-3|------1---1----|------1-3-1----|------1---1---0|
G|-------------|----0-------0--|----0-------2-0|----2-------2--|
D|-------------|--2-----------2|--0------------|--2------------|
A|-------------|3--------------|2--------------|0--------------|
E|-------------|---------------|---------------|---------------|

E|8---0-7---|------0---------|------0---------|------0---------|
B|----------|----1---1-------|----1---1-------|----1---1-------|
G|----------|--2-------2---2-|--2-------2---2-|--2-------2---2-|
D|----------|2-----------2---|3-----------3---|4-----------4---|
A|----------|----------------|----------------|----------------|
E|----------|----------------|----------------|----------------|

                   grad. decrease tempo
E|------0---------|------0-------0|------0-------0|--------5-7-|
B|----1---1-------|----1-------1--|----1-------1--|----1/5-----|
G|--2-------2---2-|--2-------2----|--2-------2----|--2---------|
D|3-----------3---|2-------0------|---------------|-2----------|
A|----------------|---------------|3-------2------|0-----------|
E|----------------|---------------|---------------|------------|

           rasgueado
E|8---10---12-|
B|---------10-|
G|----------9-|
D|---------10-|
A|------------|
E|------------|

Тональность:

Это должно быть в ТОП-листе! - Топ-лист композиций



Назад
Рекомендуем посмотреть другие песни исполнителя «Pink Floyd»:

  • Комменты Fb ()
  • Комменты ВК



Добавить в Избранное Браузера
Сохранить здесь Очистить


x

0


+
-

+
-

-

Авторизация





Зарегистрироваться

M

Дата и время

  • 18:55:46
     

Социальные ссылки


Наши приложения

  • Muzbank App Play Market
  • Muzbank Amazon App