MUZBANK


МУЗЫКАЛЬНО-ИНФОРМАЦИОННЫЙ БАНК





PPink Floyd • Atom Heart Mother (аккорды и текст - chords & lyrics)


553

Print

Видео «Atom Heart Mother (Pink Floyd)»

Видео клипы к песне подбираются автоматически сайтом youtube. Возможны некоторые несоответствия клипов песне.

↑ Спрятать рекламу ↑





Father`s Shout

G|---------------------|----------------------|----------------|
D|---------------------|----------------------|----------------|
A|---------------------|----3--1-----------3--|----------------|
E|-0-----0-----3-----3-|-1--------3--0--0-----|--0-----0-----3-|

G|-----|----------------------|---------------------|----------|
D|-----|----------------------|---------------------|----------|
A|-----|-----3--1-----------3-|---------------------|--------2-|
E|--3--|--1--------3--0--0----|-0-----0-----3-----3-|--5--5----|

G|------|---------------------|---------------------|----------|
D|------|---------------------|---------------------|----------|
A|-2--2-|---------------------|---------------------|----------|
E|------|-0-----0-----3-----3-|-1-----1-----1-----1-|--1-----1-|

                               Sounds, motorcycle

G|--------------|---------||-----------------------------||----|
D|--------------|---------||-----------------------------||----|
A|--------------|---------||-----------------------------||----|
E|--1-----1-----|--0------||-----------------------------||--0-|

G|---------------|----------------------|----------------------|
D|---------------|----------------------|----------------------|
A|---------------|----3--1-----------3--|----------------------|
E|-0-----3-----3-|-1--------3--0--0-----|--0-----0-----3-----3-|

G|---------------------|----------------------|----------------|
D|---------------------|----------------------|----------------|
A|----3--1-----------3-|----------------------|--------2--2--2-|
E|-1--------3--0--0----|-0-----0-----3-----3--|--5--5----------|

G|---------------------|----------------------|----------------|
D|---------------------|----------------------|----------------|
A|---------------------|----------------------|----------------|
E|-0-----0-----3-----3-|-1-----1-----1-----1--|--1-----1-----1-|

                   Breast Milky (2:52)

G|---|-----0---||----------------16--12------16--12------|-----|
D|---|-----0---||--14-----14-------------14----------14--|--14-|
A|---|---------||----------------------------------------|-----|
E|-1-|-0-------||----------------------------------------|-----|

G|-----16--12------16--12-----|---------16--12------16--12-----|
D|-14----------14----------14-|-14--------------14----------14-|
A|----------------------------|--------------------------------|
E|----------------------------|--------------------------------|

G|--------------------------------|----------------------------|
D|---------14--10------14--10-----|-----------12--9------12--9-|
A|-12--------------12----------12-|-10---------------10--------|
E|--------------------------------|----------------------------|

G|----|------------------------------|-------------------------|
D|----|-------16--12------16--12-----|-----------13--9------13-|
A|-10-|-14------------14----------14-|-11---------------11-----|
E|----|------------------------------|-------------------------|

G|-------|----------------------------------|------------|-----|
D|-9-----|-----------15--12------15--12-----|------------|--12-|
A|----11-|-13----------------13----------13-|--11-----11-|-----|
E|-------|----------------------------------|------------|-----|

G|--------------------|-------------------------------|-----|
D|--12-----14-----14--|--14--------14--14--14-----14--|-----|
A|--------------------|-------------------------------|--12-|
E|--------------------|-------------------------------|-----|

G|-------------------------------|---------|-------------------|
D|-------------------------------|---------|-------------------|
A|--10--------10--10--10-----10--|--14-----|--11--------11--11-|
E|-------------------------------|---------|-------------------|

G|-----------|----------|----------------|---------------------|
D|-----------|----------|----------------|---------------------|
A|-11-----11-|--13------|----------------|--12--12--14--14--14-|
E|-----------|----------|--11-----11-----|---------------------|

guitar comes in

G|---------------------|-------------------|-------------------|
D|----------14--14--14-|-------------------|-------------------|
A|---------------------|-12-----12--12--12-|-10-----10--10--10-|
E|-12------------------|-------------------|-------------------|

G|-----------------------|-----------------|-------------------|
D|-----16--12------------|-----------------|-------------------|
A|-14----------14--8--10-|-11---11--11--11-|-13-----13--13--13-|
E|-----------------------|-----------------|-------------------|

G|----|-------------------------|-----------------|------------|
D|----|-------------------------|-----------------|------------|
A|-13-|-------------------------|-12---12--12--12-|-14--14--14-|
E|----|-11-----11--11----11--11-|-----------------|------------|

G|----||------------------------|-------------------|----------|
D|----||-----14----------14--14-|-------------------|----------|
A|-14-||------------------------|-12-----12--12--12-|-10----10-|
E|----||-12------12--12---------|-------------------|----------|

G|--------|----------------|---------------|-------------------|
D|--------|----------------|-----13--9-----|-------------------|
A|-10--10-|-14--14--14--14-|-11---------11-|-13-----13--13--13-|
E|--------|----------------|---------------|-------------------|

G|----------------------------|-------------------------||-----|
D|----------------------------|-------------------------||-----|
A|----------------------------|-12-----12-----14-----14-||-----|
E|--11-----11--11-----11--11--|-------------------------||--12-|

G|------------|--------------|----------------|----------------|
D|------------|--------------|----------------|----------------|
A|------------|-12--------12-|-10-----10--10--|--14-----14--14-|
E|-12--12--12-|--------------|----------------|----------------|

G|----|----------------------|---------------------------|-----|
D|----|----------------------|---------------------------|-----|
A|-14-|-11-----11--11-----11-|-13--13-----13--13--13--13-|-----|
E|----|----------------------|---------------------------|--11-|

G|--------------------|------------------------------|
D|--------------------|------------------------------|
A|--------------------|--12-----12-----14-----14--14-|
E|-11--11-----11--11--|------------------------------|

Mother Fore (5:23)    4x                                  18x

G||------------------||-------------||---9---------------||----|
D||*----------------*||-------------||*-----------------*||----|
A||*--7-------------*||-------------||*--------------7--*||--0-|
E||------------------||-------------||---------0---------||----|

G|---------|---------------|---------|-----------|-------------|
D|---------|---------------|---------|-----------|-------------|
A|-0--0--0-|-0-----0--0--0-|-7-----7-|--7-----7--|--0-----0--0-|
E|---------|---------------|----0----|-----0-----|-------------|

                  12x

G|---||-----------||---------------|----------------|----------|
D|---||*---------*||---------------|----------------|----------|
A|-0-||*-7----7--*||-0-----0--0--0-|-0-----0--0--0--|--7-----7-|
E|---||----0------||---------------|----------------|-----0----|

                                                            18x

G|---------|---------------|---------------||------------||----|
D|---------|---------------|---------------||*----------*||----|
A|-7-----7-|-0-----0--0--0-|-0-----0--0--0-||*-7-----7--*||--0-|
E|----0----|---------------|---------------||-----0------||----|

G|---------|---------------|------------------------|----------|
D|---------|---------------|------------------------|----------|
A|-0--0--0-|-0-----0--0--0-|-7-----7-----7--7--7--7-|-0---0--0-|
E|---------|---------------|----0-------------------|----------|

G|---|---------------|------------------------|----------------|
D|---|---------------|------------------------|----------------|
A|-0-|-0-----0--0--0-|-7-----7-----7--7--7--7-|--0-----0--0--0-|
E|---|---------------|----0-------------------|----------------|

G|----------------|--9--------9--------9--------9-------|
D|----------------|-------------------------------------|
A|-0-----0--0--0--|--------7--------7--------7--------7-|
E|----------------|-----0--------0--------0--------0----|

Funky Dung (10:12)

G|----------|----------|---------12-----12--12--12--12--10-----|
D|-14-------|-14-------|-14---------------------------------12-|
A|----------|----------|-----10--------------------------------|
E|----14-12-|----14-12-|---------------------------------------|

                                             6x

G||--------12---12--12--12--12--10-------||----------12--------|
D||*--------------------------------12--*||-----------------12-|
A||*-10-10------------------------------*||--10--10------------|
E||--------------------------------------||--------------------|

G|-10------12-----|---------12----12--10---------||---------12-|
D|-----12------12-|-----------------------12--12-||*-----------|
A|----------------|-10--10-----------------------||*-10--10----|
E|----------------|------------------------------||------------|

                         14x

G|-12-12-12-12-10-----||---------12------10------10------10h12-|
D|----------------12-*||-------------12------12------12--------|
A|-------------------*||-10--10--------------------------------|
E|--------------------||---------------------------------------|

G|---------12-----12--12--12--12--10-----|---------12---12--12-|
D|------------------------------------12-|---------------------|
A|-10--10--------------------------------|-10--10--------------|
E|---------------------------------------|---------------------|

G|--------||----------12--12--12--12--12--10------||--------12-|
D|-12--12-||*---------------------------------12-*||-----------|
A|--------||*-10--10-----------------------------*||-10--10----|
E|--------||--------------------------------------||-----------|

G|-----10------10------10h12-|---------12-------12-||----------|
D|-12------12------12--------|--------------10-----||*---------|
A|---------------------------|-10--10--------------||*--10--10-|
E|---------------------------|---------------------||----------|

                                8x

G|-12--12--12--12--12--10-------||----------12------10------10-|
D|-------------------------12--*||--------------12------12-----|
A|-----------------------------*||--10--10---------------------|
E|------------------------------||-----------------------------|

G|-----10h12-|--------12--|------12-----12--12--12--12--10-----|
D|-12--------|------------|---------------------------------12-|
A|-----------|-10---------|--10--------------------------------|
E|-----------|------------|------------------------------------|

                                 4x

G||-----------12-12-10-------||----------12---10h12------|-----|
D||*--------------------12--*||----------------------12--|-----|
A||*--10--10----------------*||--10--10------------------|--10-|
E||--------------------------||--------------------------|-----|

G|-----12------10----10h12-|---------12-12--12--12--12--10-----|
D|---------12-----12-------|--------------------------------12-|
A|-10----------------------|-10--10----------------------------|
E|-------------------------|-----------------------------------|

G|--------12------10------10-----10h12-|---------12-----12--10-|
D|------------12------12------12-------|-----------------------|
A|-10-10-------------------------------|-10--10----------------|
E|-------------------------------------|-----------------------|

G|-----12--10------|----------12---------10------10------10h12-|
D|-12----------12--|-----------------12------12------12--------|
A|-----------------|--10--10-----------------------------------|
E|-----------------|-------------------------------------------|

singing starts

G|---------12---12--12---------|---------12-----12--10------12-|
D|----------------------12--12-|------------------------12-----|
A|-10--10----------------------|-12--12------------------------|
E|-----------------------------|-------------------------------|

G|---------12--12--12--12--12--10-----||----------12----12--10-|
D|---------------------------------12-||*----------------------|
A|-10--10-----------------------------||*-10--10---------------|
E|------------------------------------||-----------------------|

     6x

G|-----||---------12------10------10------10h12-|--------12-12-|
D|-12-*||-------------12------12------12--------|--------------|
A|----*||-10--10--------------------------------|-10-10--------|
E|-----||---------------------------------------|--------------|

                                             3x

G|-10---------||----------12--12--10------||---------12-----12-|
D|-----12--12-||*---------------------12-*||-------------------|
A|------------||*-10--10-----------------*||-10--10------------|
E|------------||--------------------------||-------------------|

G|-12-10--------|---------12------10------10------10h12-||-----|
D|-------12--12-|-------------12------12------12--------||*----|
A|--------------|-10--10--------------------------------||*-10-|
E|--------------|---------------------------------------||-----|

                                    5x

G|----12-----12--12--12--12--10-------||----------12---|-------|
D|-------------------------------12--*||---------------|-------|
A|10---------------------------------*||--10--10-------|--8--8-|
E|------------------------------------||---------------|-------|

                                         8x

G|-10---|--------10--------||----------||----------------------|
D|------|------------------||*--------*||----------------------|
A|------|--8--8------------||*--7-----*||----------------------|
E|------|------------------||----------||--0-----0-----3-----3-|

G|---------------------|--------------------|------------------|
D|---------------------|--------------------|------------------|
A|----3--1-----------3-|--------------------|----3--1----------|
E|-1--------3--0--0----|-0-----0-----3----3-|-1--------3--0--0-|

G|---|----------------------|-----------------|----------------|
D|---|----------------------|-----------------|----------------|
A|-3-|----------------------|--------2--2--2--|----------------|
E|---|-0-----0-----3-----3--|--5--5-----------|--0-----0-----3-|

G|---|-------------------------|--------------------------|----|
D|---|-------------------------|--------------------------|----|
A|---|-------------------------|--------------------------|----|
E|-3-|-1-----1-----1-----1-----|--1-----1-----1-----1-----|--0-|

       Mind Your Throats Please (15:28)

Remergence (19:13)

G|---------------------|----------------------|----------------|
D|---------------------|----------------------|----------------|
A|---------------------|----3--1-----------3--|----------------|
E|-0-----0-----3-----3-|-1--------3--0--0-----|--0-----0-----3-|

G|-----|----------------------|---------------------|----------|
D|-----|----------------------|---------------------|----------|
A|-----|-----3--1-----------3-|---------------------|--------2-|
E|--3--|--1--------3--0--0----|-0-----0-----3-----3-|--5--5----|

G|-----|----------------------|---------------------|----------|
D|-----|----------------------|---------------------|----------|
A|2--2-|----------------------|---------------------|----------|
E|-----|-0-----0-----3-----3--|-1-----1-----1-----1-|--1-----1-|

G|---------|--------------||----------------16--12------16--12-|
D|---------|--------------||--14-----14-------------14---------|
A|---------|--------------||-----------------------------------|
E|-1-----1-|--0-----------||-----------------------------------|

G|----|---------------16--12------16--12-----|------16--12-----|
D|-14-|-14-----14-------------14----------14-|-14-----------14-|
A|----|--------------------------------------|-----------------|
E|----|--------------------------------------|-----------------|

G|-16--12-----|----------------------------------|-------------|
D|---------14-|-----------14--10------14--10-----|-------12--9-|
A|------------|-12----------------12----------12-|-10----------|
E|------------|----------------------------------|-------------|

G|---------------|----------------------------------|----------|
D|-----12--9-----|-----------16--12------16--12-----|-------13-|
A|-10---------10-|-14----------------14----------14-|-11-------|
E|---------------|----------------------------------|----------|

G|------------------|--------------------------------|---------|
D|-9------13--9-----|---------15--12------15--12-----|---------|
A|----11---------11-|-13--------------13----------13-|-11---11-|
E|------------------|--------------------------------|---------|

G|-------------------------|-------------------------------||--|
D|-12-----12-----14-----14-|--14--------14--14--14-----14--||*-|
A|-------------------------|-------------------------------||*-|
E|-------------------------|-------------------------------||--|

(with slight variations)

G|------------------------|------------------|-----------------|
D|-----14----------14--14-|------------------|-----------------|
A|------------------------|-12----12--12--12-|-10---10--10--10-|
E|-12------12--12---------|------------------|-----------------|

G|-------------------|---------------|-------------------|-----|
D|-------------------|-----13--9-----|-------------------|-----|
A|-14-----14--14--14-|-11---------11-|-13-----13--13--13-|-----|
E|-------------------|---------------|-------------------|--11-|

                                                      4x

G|-------------------|-----------------------------||----------|
D|-------------------|----------------------------*||----------|
A|-------------------|-12-----12-----14-----14----*||----------|
E|-11--11-----11--11-|-----------------------------||--0-----0-|

G|---------|---------------------|---------------------|-------|
D|---------|---------------------|---------------------|-------|
A|---------|----3--1-----------3-|---------------------|-----3-|
E|-3-----3-|-1--------3--0--0----|-0-----0-----3-----3-|--1----|

G|---------------|----------------------|-----------------|----|
D|---------------|----------------------|-----------------|----|
A|-1-----------3-|----------------------|--------2--2--2--|----|
E|----3--0--0----|-0-----0-----3-----3--|--5--5-----------|--0-|

G|---------------|----------------------|----------------------|
D|---------------|----------------------|----------------------|
A|---------------|----------------------|----------------------|
E|-0-----3-----3-|-1-----1-----1-----1--|--1-----1-----1-----1-|

G|---------------------|----------------------|----------------|
D|---------------------|----------------------|----------------|
A|---------------------|----3--1-----------3--|----------------|
E|-0-----0-----3-----3-|-1--------3--0--0-----|--0-----0-----3-|

G|---|---------------------|------------------------|----------|
D|---|---------------------|------------------------|----------|
A|---|----3--1-----------3-|------------------------|--------2-|
E|-3-|-1--------3--0--0----|--0-----0-----3-----3---|--5--5----|

G|------|---------------------|---------------------|----------|
D|------|---------------------|---------------------|----------|
A|-2--2-|---------------------|---------------------|----------|
E|------|-0-----0-----3-----3-|-1-----1-----1-----1-|--1-----1-|

                                    (23:42)-end

G|--------------|--|----|
D|--------------|--|----|
A|--------------|--|--7-|
E|--1-----1-----|--|----|

Тональность:

Это должно быть в ТОП-листе! - Топ-лист композиций



Назад
Рекомендуем посмотреть другие песни исполнителя «Pink Floyd»:

  • Комменты Fb ()
  • Комменты ВК



Добавить в Избранное Браузера
Сохранить здесь Очистить


x

0


+
-

+
-

-

Авторизация





Зарегистрироваться

M

Дата и время

  • 18:32:31
     

Социальные ссылки


Наши приложения

  • Muzbank App Play Market
  • Muzbank Amazon App