MUZBANK


МУЗЫКАЛЬНО-ИНФОРМАЦИОННЫЙ БАНК





PPink Floyd • Brain Damage (аккорды и текст - chords & lyrics)


642

Print

Видео «Brain Damage (Pink Floyd)»

Видео клипы к песне подбираются автоматически сайтом youtube. Возможны некоторые несоответствия клипов песне.

↑ Спрятать рекламу ↑





D
E|-2--------------2------|
B|-3------3--------------|2---|
A|--------------------------------2----------0--0--------------|
E|-----------0-2---3------------3---------3--------------------|

	     C				      G
	 And if there is no room upon the hill
E|-------------------0-------------------------------------|
B|-------2-------1-----3-1>3-----------------------------0-|
G|-----2---2-------0-----------------0---0---------------0-|
D|---2--------------------------2----2---2--2--------0-----|
A|-0---------0-3--------------3---3--3---3--3--------------|
E|-----------------------------------------------3---------|

					    A7
	And if your head explodes with dark forebodings too
E|---------------------------------------------------------|
B|-0-------0-----0------------------0--------------0-------|
G|----0----0--0--0--------------0------0-------0>2---0-0>2-|
D|---------0---------------0-----------------2-------------|
A|-------------------------------------------0-------------|
E|-------3------------3-------------------3----------------|

	     I`ll see you in the dark side of the moon
E|---------------------------------0-0-------------------------|
B|-------2-------------1-----------1-1-----------------0-------|
G|---2-----2-------0--------0------0-0-------------------0-----|
D|-----2---------------------------2-2-------------------------|
A|-0-----------3----------------3----3-----------------------0-|
E|---------------------------------------------3-----3-----3---|

Ah----------		   Ah
E|----------------------------------------|
B|-----3----------3---------------2---2---|
G|---2---2---0----4-------0-----2---2---0-|
D|---------4-2--------5-------------------|
A|-2---------2----------------0-----------|
E|-----------0----------------------------|

The      lunatic is in my head
E|-2-------2---2---------2-----1-------1---1-------1---|
B|-3---3-------3-----3---------0---0-------0---0-------|
G|-2-----2-----2-------2-------0-----0-----0-----0-----|
D|---0-------0-----0--------0----0-------0---0-------0-|
A|-----------------------------------------------------|
E|-----------------------------------------------------|

The   lunatic is in my head
E|-2-------2----2-------2----1-------1---1-------1---|
B|-3---3--------3---3--------0---0-------0---0-------|
G|-2-----2------2-----2------0-----0-----0-----0-----|
D|---0-------0----0-------0----0-------0---0-------0-|
A|---------------------------------------------------|
E|---------------------------------------------------|

You raise the blade,		   You make the change
E|-2---------2-----2-------2---4------------4----4-------4----|
B|-3----3----------3---3-------5------5----------5---5--------|
G|-2-------2-------2-----2-----4---------4-------4-----4------|
D|-0--0---------0----0-------0-0---0-----------0-0-0--------0-|
A|------------------------------------------------------------|
E|------------------------------------------------------------|

  You re-arrange me till I`m sane
E|-3-------------3------------------2-------2----0-----0-------|
B|-2-------2-----2------------2-----3---3--------3-3-----------|
G|-2---2-2-------2------2---2-------2-----2------2--------2--2-|
D|-2-------------2------------------0-0-------0--0---0----0--0-|
A|---0--------0-------0----------0-----------------------------|
E|-------------------------------------------------------------|

    You lock the door	  And	throw away the key        There`s
E|-2-----------2---2-----------2----4---------4--4---------4---|
B|-3-----3---------3-----3----------5----5-------5-----5-------|
G|-2--------2------2--------2-------4-------4----4-------4-----|
D|-0--0----------0-0--0-----------0-0--0---------0--0--------0-|
A|-------------------------------------------------------------|
E|-------------------------------------------------------------|

someone in my head, but is`s not me
E|-3-3----------3----------------2--2--------0--------0-------|
B|-2-------2----2----------2-----3--3--3--------3--------3----|
G|-2-----2------2----2--2--------2--2-----2--------2--------2-|
D|-2------------2-------2--------0--0-----0-------------------|
A|-0---0-----0--0--0----0-----0-----------0-------------------|
E|------------------------------------------------------------|

E|-2-----2--0---------2---------------|
B|-1-----------1----------1-----------|
G|-2--2------------2------------------|
D|-0----------------------------------|
A|------------------------------------|
E|----------------------------0--2--3-|

repeat chorus

outro: use chords at top.

D	D	G7/D	G7/D	D	D	G7/D	G7/D	D	D
E/D	E/D	A7	A7	D	Dsus2	D	D	E/D	E/D
A7	A7	D	Dsus2

Тональность:

Это должно быть в ТОП-листе! - Топ-лист композиций



Назад
Рекомендуем посмотреть другие песни исполнителя «Pink Floyd»:

  • Комменты Fb ()
  • Комменты ВК



Добавить в Избранное Браузера
Сохранить здесь Очистить


x

0


+
-

+
-

-

Авторизация





Зарегистрироваться

M

Дата и время

  • 19:43:45
     

Социальные ссылки


Наши приложения

  • Muzbank App Play Market
  • Muzbank Amazon App