MUZBANK


МУЗЫКАЛЬНО-ИНФОРМАЦИОННЫЙ БАНК





PPink Floyd • Clouds (аккорды и текст - chords & lyrics)


541

Print

Видео «Clouds (Pink Floyd)»

Видео клипы к песне подбираются автоматически сайтом youtube. Возможны некоторые несоответствия клипов песне.

↑ Спрятать рекламу ↑





Fade in synth drone on A

E|---|
B|---|
G|---| 2 РАЗА
D|-7-|
A|-0-|
E|---|

E|------------------------------------------------|-------|
B|------------------------------------------------|-------|
G|-7--/9------------------------------------------|-------|
D|-Slide guitar---------10--/12-------------9⁄--5-|-5--/7-|
A|------------------------------------------------|-------|
E|------------------------------------------------|-------|

E|--------------------------------------------------------|
B|--------------------------------------------------------|
G|-7--/9--------------------------------------------------|
D|-----------------------10--/12--------------------9⁄--5-|
A|--------------------------------------------------------|
E|--------------------------------------------------------|

E|--------------------------------------|
B|--------------------------------------|
G|--------------------------------------|
D|-5--/7---------------------5--2--0----|
A|------------------------------------0-|
E|--------------------------------------|

E|--------------------------------------------------------|
B|-------------------8--/10--10------8--8--8--------------|
G|-7--/9--9-------------------------------------7/-----/9-|
D|--------------------------------------------------------|
A|--------------------------------------------------------|
E|--------------------------------------------------------|

E|--------------------------------------------------------|
B|--------------------------------------------------------|
G|--------------------------------------------------------|
D|------------5/--/7------------------------7--5--2--0----|
A|------------------------------------------------------0-|
E|--------------------------------------------------------|

E|--------------------------------------------------------|
B|--------------------------------------------------------|
G|---------------------------------------2/-------/14--14-|
D|--------------------------------------------------------|
A|--------------------------------------------------------|
E|--------------------------------------------------------|

E|--------------------------------------------------------|
B|--------------------------------------------------------|
G|-------17----12--12/14---------------------2/-------/14-|
D|--------------------------------------------------------|
A|--------------------------------------------------------|
E|--------------------------------------------------------|

E|--------------------------------------------------------|
B|--------------------------------------------------------|
G|--17----12--12/14-------------------------12/14--14--14-|
D|--------------------------------------------------------|
A|--------------------------------------------------------|
E|--------------------------------------------------------|

E|--------------------------------------------------------|
B|--------------------------------------------------------|
G|-----12/14--14--14------------------------12/14--14--14-|
D|--------------------------------------------------------|
A|--------------------------------------------------------|
E|--------------------------------------------------------|

E|--------------------------------------------------------|
B|--------------------------------------------------------|
G|--12/14--14--14-----------------------12/14--14--14-----|
D|--------------------------------------------------------|
A|--------------------------------------------fade out...-|
E|--------------------------------------------------------|

Тональность:

Это должно быть в ТОП-листе! - Топ-лист композиций



Назад
Рекомендуем посмотреть другие песни исполнителя «Pink Floyd»:

  • Комменты Fb ()
  • Комменты ВК



Добавить в Избранное Браузера
Сохранить здесь Очистить


x

0


+
-

+
-

-

Авторизация





Зарегистрироваться

M

Дата и время

  • 21:01:27
     

Социальные ссылки


Наши приложения

  • Muzbank App Play Market
  • Muzbank Amazon App