MUZBANK


МУЗЫКАЛЬНО-ИНФОРМАЦИОННЫЙ БАНК





PPink Floyd • Eclipse (аккорды и текст - chords & lyrics)


593

Print

Видео «Eclipse (Pink Floyd)»

Видео клипы к песне подбираются автоматически сайтом youtube. Возможны некоторые несоответствия клипов песне.

↑ Спрятать рекламу ↑





   D               D/C              Bb6/9 (add#11)
g|---|-7---------|----|----------|-----------|--3--------------|
D|---|---7-------|----|----------|-----------|-----3--0-3-0----|
A|-5-|------5--0-|-3--|-3--3--3--|--1--1--1--|---------------1-|
E|---|-----------|----|----------|-----------|-----------------|

Verses
   A7                D                  D/C
g|----|--------------|-----|-----------|--------|-----5--------|
D|----|--------------|-----|-----------|--------|--------------|
A|-0--0/12--12--12--125----|-5---5---5-|--3-----|--3-----3--3--|
E|----|--------------|---5-|---5---5---|--------|--------------|

   Bb6/9 (add#11)         A7                D
g|--------|------3-----|----------|------|-------|-------------|
D|--------|----3---3---|----------|------|-------|-------------|
A|-1------|----------1-|--0---/12-|-/12--|--5----|--5---5----5-|
E|--------|------------|----------|------|-------|----5---5----|

   D/C              Bb6/9 (add#11)          A7
g|----|----5-------|-------|--------------|------------------|
D|----|--------5---|-------|--------------|------------------|
A|-3--|--3-------3-|--1----|--1-1-1-1-1-1-/12-12-12-12-12-12-|
E|----|------------|-------|--------------|------------------|

                       D                 D/C
g|-------------------|---|-7----------|-----------|--5---------|
D|-------------------|---|---7--------|-----------|----5-------|
A|-12-12-12-12-12-12-|-5-|------5--5--|--3--3--3--|--------3-3-|
E|-------------------|---|------------|-----------|------------|

   Bb6/9 (add#11)        A7                    D
g|----------|----------|--------|-----------|---------|-------|
D|----------|----------|--------|-----------|---------|-------|
A|-1--1--1--|-1-1----1-|-0----0-|-0--4-/-12-|--5------|--5--5-|
E|----------|----------|--------|-----------|---------|-------|

    D/C                         Bb6/9(add#11)
g|------------|--------------|------------|-------------|
D|------------|--------------|------------|-------------|
A|-3----------|--3---3---3---|--1---------|---1-1-1-1-1-|
E|---------3--|----3---3-----|------------|-------------|

   A7                           D                    D/C
g|-------|-------------------|-----------|---------|-----------|
D|-------|-------------------|-----------|----7----|-----------|
A|-0----4/12-12-12-12-12-12--|--5--------|-5-----5-|-3-3-3-3-3-|
E|-------|-------------------|---------5-|---------|-----------|

               Bb6/9(add#11)
g|-----------|---------|---------|
D|-----------|---------|---------|
A|-3-3-3-3-3-|-1--1--1-|-1-1---1-|
E|-----------|---------|-----1---|

   A7
E|---------------|-------------------|
B|---------------|-------------------|
G|-0-0-0-0/12-12-|-12-12-12-12-12-12-|
D|---------------|-------------------|

   D                      D/C                     Bb6/9(add#11)
g|-----------|----------|----------|------------|-------------|
D|-----------|----------|----------|------------|-------------|
A|-5--5--5---|-5--5---5-|-3--------|--3---3--3--|--1--1--1-1--|
E|---------5-|------5---|--------3-|----3-------|-------------|

             A7                            D
g|----3----|---------|-------------------|---------|-7---------|
D|-3-----3-|---------|-------------------|---------|---7-------|
A|---------|-0--0--0-|-12-12-12-12-12-12-|-5--5--5-|------5--5-|
E|---------|---------|-------------------|---------|-----------|

   C/D                  Bb6/9(add#11)       D      fade out
g|-----------|---------|---------|-------|--2-----|-(2)---||
D|-----------|---------|---------|-------|--0-----|-(0)---||
A|-3-------3-|-3--3--3-|-1-------|-1-----|--------|-------||
E|-----------|---------|---------|-------|--------|-------||

*  [ 3 ] denotes triplets

Тональность:

Это должно быть в ТОП-листе! - Топ-лист композиций



Назад
Рекомендуем посмотреть другие песни исполнителя «Pink Floyd»:

  • Комменты Fb ()
  • Комменты ВК



Добавить в Избранное Браузера
Сохранить здесь Очистить


x

0


+
-

+
-

-

Авторизация





Зарегистрироваться

M

Дата и время

  • 19:07:40
     

Социальные ссылки


Наши приложения

  • Muzbank App Play Market
  • Muzbank Amazon App