MUZBANK


МУЗЫКАЛЬНО-ИНФОРМАЦИОННЫЙ БАНК





PPink Floyd • Goodbye Blue Sky (аккорды и текст - chords & lyrics)


596

Print

Видео «Goodbye Blue Sky (Pink Floyd)»

Видео клипы к песне подбираются автоматически сайтом youtube. Возможны некоторые несоответствия клипов песне.

↑ Спрятать рекламу ↑






TUNING: D A D G B E

E|--------------------------------------------------|
B|--------------------------------------------------|
G|------0----------------0----------------0---------|
D|--4-------4---4----4-------4---4----4-------4---4-|
A|----5-------5--------5-------5--------5-------5---|
D|0-------0--------0-------0--------0-------0-------|

E|--------------------------------|
B|--------------------------------|
G|-----0------------5---5-------4-|
D|--4----4-2--------5---5-------4-|
A|----5------3p2--0---------------|
D|0-------------------0---0---0---|

E|-------------------------------------------------------------|
B|-------------------------------------------------------------|
G|4---------5---5-----4--4---------5---5-----4----4------4-5-6-|
D|4---------5---5-----4--4---------5---5-----4----4------4-5-6-|
A|-------------------------------------------------------------|
D|--0-0-0-0---0---0-0----0-0-0-0-0---0---0-0----0---0----------|
                                       Repeat x3
E|-------------------------------------------------------------|
B|-------------------------------------------------------------|
G|----0-------0--------0-------0---.-11--9----7---6--6h7p6p7---|
D|--4---4---4---4----4---4---4---4-.---------------------------|
A|5-------5--------5-------5-----------------------------------|
D|----------------------------------0---0--0-0-0-0--0--------0-|

E|-----------------------------------|
B|-----------------------------------|
G|----0-------0--------0-------0---.-|
D|--4---4---4---4----4---4---4---4-.-|
A|2-------2--------2-------2---------|
D|-----------------------------------|

E|-------------------------------------------------------------|
B|-------------------------------------------------------------|
G|--5---5---5---5--4--------------5---5---5---5--4-------------|
D|--5---5---5---5--4--------------5---5---5---5--4-------------|
A|-------------------------------------------------------------|
D|0---0---0---0----0--0--0--0---0---0---0---0----0---0---0---0-|

E|-------------------------------------------------------------|
B|-------------------------------------------------------------|
G|--5---5------5-----4--4-4-4-4----2---2-2-2-2-----0---0-0-0-0-|
D|--5---5------5-----4--4-4-4-4----2---2-2-2-2-----0---0-0-0-0-|
A|-------------------------------------------------------------|
D|0---0---0--0----0--0--0---0---0--0---0---0----0--0---0---0---|

E|-------------------------------|
B|-------------------------------|
G|-------------------------------|
D|----4---4-4-4-4---2---2-----0--|
A|----4---4-4-4-4---2---2---4----|
D|0-0---0---0-----0---0---0------|

E|-----------------------------------|
B|-----------------------------------|
G|-------0-------0-------0-------0---|
D|-----4---4---4---4---4---4---4---4-|
A|-4-2-------2-------2-------2-------|
E|-----------------------------------|

E|---------------------------------|
B|---------------------------------|
G|------0----------------0---------|
D|--4-------4---4----4-------4---4-|
A|----5---5---5--------5---5---5---|
D|0----------------0---------------|

  Repeat x2
E|-------------------------------------|
B|-------------------------------------|
G|---11---9-------7------6---6h7p6p7---|
D|-------------------------------------|
A|-------------------------------------|
E|-0----0---0---0----0-0---0---------0-|

E|-----------------------------------|
B|-----------------------------------|
G|----0-------0--------0-------0---.-|
D|--4---4---4---4----4---4---4---4-.-|
A|2-------2--------2-------2---------|
D|-----------------------------------|

E|-------------------------------------------------------------|
B|-------------------------------------------------------------|
G|--5---5---5---5--4---4------------5---5---5---5--4---4-------|
D|--5---5---5---5--4---4------------5---5---5---5--4---4-------|
A|-------------------------------------------------------------|
D|0---0---0---0----0---0---0---0--0---0---0---0----0---0--0--0-|

E|------------------------------------------------|
B|------------------------------------------------|
G|--5---5-------5------4---4-4-4-4----------4-5-6-|
D|------------------------------------------------|
A|------------------------------------------------|
D|0---0---0---0----0---0---0---0----0---0---0---0-|

E|---------------------------------|
B|---------------------------------|
G|----0-------0--------0-------0---|
D|--4---4---4---4----4---4---4---4-|
A|5-------5--------5-------5-------|
D|---------------------------------|

E|-------------------------------------------------------------|
B|-------------------------------------------------------------|
G|-------------------------------------------------------------|
D|-4---4---4---4---4---4---4---4---4---4---4---4--4---4---4--4-|
A|5--5---5---5---5---5---5---5---5---5---5---5---5--5---5--5---|
D|-------------------------------------------------------------|

E|-------------------------------------------------------------|
B|-----------1-----------1-------------1-----------------------|
G|-----------0-----------0-------------0-----------------------|
D|--0--0--0--0--0--0--0--0--0--0---0---0----0---0--------------|
A|3-----------------------------------------------3p2p0--------|
D|------------------------------------------------------3(b)-0-|

   Repeat to fade
E|-------------------------------------|
B|-------------------------------------|
G|.-------0----------------0---------.-|
D|.---4-------4---4----4-------4---4-.-|
A|------5---5---5--------5---5---5-----|
D|--0----------------0-----------------|

(lyrics)

Oooooooooooh
Oooooooooooh
Oooooooooooh
Did did did did you see the frightened ones?
Did did did did you hear the falling bombs
Did did did did you ever wonder why we had to run for shelter
When the promise of a brave new world unfurled beneath the
clear blue sky?

Oooooooooooh
Oooooooooooh
Did did did did you see the frightened ones?
Did did did did you hear the falling bombs?
The flames are all long gone but the pain lingers on
Goodbye blue sky
Goodbye blue sky
Goodbye, goodbye

Тональность:

Это должно быть в ТОП-листе! - Топ-лист композиций



Назад
Рекомендуем посмотреть другие песни исполнителя «Pink Floyd»:

  • Комменты Fb ()
  • Комменты ВК



Добавить в Избранное Браузера
Сохранить здесь Очистить


x

0


+
-

+
-

-

Авторизация





Зарегистрироваться

M

Дата и время

  • 14:22:56
     

Социальные ссылки


Наши приложения

  • Muzbank App Play Market
  • Muzbank Amazon App