MUZBANK


МУЗЫКАЛЬНО-ИНФОРМАЦИОННЫЙ БАНК





PPink Floyd • Grantchester Meadows (аккорды и текст - chords & lyrics)


589

Print

Видео «Grantchester Meadows (Pink Floyd)»

Видео клипы к песне подбираются автоматически сайтом youtube. Возможны некоторые несоответствия клипов песне.

↑ Спрятать рекламу ↑






VERSE 1:
  E                      A/E                    E
E|------------------------------------------------------------|
B|------------------------------------------------------------|
G|---------4----6----7------6----4----2----6------6----4----4-|
D|---------6----7----9------7----6----4----7------7----6----6-|
A|------------------------------------------------------------|
E|------------------------------------------------------------|

E|-------------------------------------------------------------|
B|-5^7^5---4^5^4-----------------------------------------------|
G|-----------------6^8^6---4^6^4---------4-------4---6-------7-|
D|---------------------------------------6-------6---7-------9-|
A|-------------------------------------------------------------|
E|-------------------------------------------------------------|
                                         I   -   cy  wind    of

A/E                                E
E|-------------------------------------------------------------|
B|-------------------------------------------------------------|
G|-6-------4-------2-------6---------6---4-------4-------2---4-|
D|-7-------6-------4-------7---------7---6-------6-------4---6-|
A|-------------------------------------------------------------|
E|-------------------------------------------------------------|
  night   be      gone,   this       is  not   your    do- main

E|-------------------------------------------------------------|
B|---------4^5^4-----------------------------------------------|
G|(4)--------------6^8^6---4^6^4-----4---4-------6-----------7-|
D|(6)--------------------------------6---6-------7-----------9-|
A|-------------------------------------------------------------|
E|-------------------------------------------------------------|
                                     In  the     sky         a

A/E                                E
E|-----------------------------------------|
B|-----------------------------------------|
G|-6-------4-------2-------6---6----(6)--4-|
D|-7-------6-------4-------7---7----(7)--6-|
A|-----------------------------------------|
E|-----------------------------------------|
  bird    was     heard   to  cry________

                                   A
--------------------------------------------------------------|
--5^7^5---4^5^4---------------------5-------5---7-----------8-|
------------------6^8^6---4^6^4-----6-------6---7-----------9-|
--------------------------------------------------------------|
--------------------------------------------------------------|
3-------------------------------------------------------------|
                                     Mist -  y   morn    -   ing

D/A
E|-------------------------------------------------------------|
B|-10------12--10----------8---------8---7-------7-------5---7-|
G|-11------12--11----------9---------9---7-------7-------6---7-|
D|-------------------------------------------------------------|
A|-------------------------------------------------------------|
E|-------------------------------------------------------------|
  whis -  per-ings        and        gen-tle  stir - ring sounds

                                   E
E|---------5^7^5-----------------------------------------------|
B|-----------------9^10^9--7^9^7-------------------------------|
G|(7)--------------------------------------------4---6-------7-|
D|(7)--------------------------------------------6---7-------9-|
A|-------------------------------------------------------------|
E|-------------------------------------------------------------|
                                                 be- lied    a

A/E                                E
E|-------------------------------------------------------------|
B|-------------------------------------------------------------|
G|-6-------4-------2-------6---------6-------4---4-------2---4-|
D|-7-------6-------4-------7---------7-------6---6-------4---6-|
A|-------------------------------------------------------------|
E|-------------------------------------------------------------|
  death - ly      si  -   lence      that    lay all   a - round

                                  Chorus:
                                   A
E|-------------------------------------------------------------|
B|---------4^5^4-------------------------5---5---5---5---5---5-|
G|(4)--------------6^8^6---4^6^4---------6-------6-------------|
D|(6)----------------------------------------------------------|
A|-------------------------------------------------------------|
E|-------------------------------------------------------------|
                                       Hear the lark and hark-en
G                F#m               E
E|-------------------------------------------------------------|
B|-3-3-3-------3---2---2---2-----------------------------------|
G|-4---------------2-----------2-----------------4-----------4-|
D|-----------------------------------------------6-------7---6-|
A|-------------------------------------------------------------|
E|-------------------------------------------------------------|
 to the bark-ing  of  the dog-fox             gone    to  ground

                                   A
E|-------------------------------------------------------------|
B|---------------------------------------5---5---5---5---5---5-|
G|(4)------------------------------------6-------6-------------|
D|(6)----------------------------------------------------------|
A|-------------------------------------------------------------|
E|-------------------------------------------------------------|
                                        See the splashing of the

G                F#m               E
E|-----------------------------------------|
B|-3---3-3---------2---2---2---------------|
G|-4---------------2-------------2---4---4-|
D|-----------------------------------6-----|
A|-----------------------------------------|
E|-----------------------------------------|
  kingfisher      flashing to   the  wa- ter

                                   A
E|-------------------------------------------------------------|
B|-----------------------------------5---5-------5---5-------5-|
G|-------------------------4---4-----6---------------6---------|
D|-------------------------------------------------------------|
A|-------------------------------------------------------------|
E|-------------------------------------------------------------|
                          And a      riv-er      of  green   is
G                F#m               E
E|-------------------------------------|
B|-3---3-------3---2-----2-2-----------|
G|-4---------------2-----------2-----4-|
D|-----------------------------------6-|
A|-------------------------------------|
E|-------------------------------------|
  sliding     un- seen  beneath the  trees

                               A
E|-------------------------------------------------------------|
B|-------------------------------5---5---5---5---5---5---5---5-|
G|-------------------------------6---------------6-------------|
D|-------------------------------------------------------------|
A|-------------------------------------------------------------|
E|-------------------------------------------------------------|
Laughing as it  passes through the

G                F#m               E
E|-------------------------------------|
B|-3---3---3-3-----2---2---2-----------|
G|-4---------------2-----------2-----4-|
D|-----------------------------------6-|
A|-------------------------------------|
E|-------------------------------------|
  end-less summer mak-ing for the    sea

Meanwhile a second guitar is playing this:
E and A/E              A and D/A
E|------------------  ------------------|
B|------------------  ------------------|
G|------------------  ----2---2---2---2-|
D|---2---2---2---2--  ------------------|
A|------------------  --0---0---0---0---|
E|-0---0---0---0----  ------------------|

G                      F#m
E|------------------  ------------------|
B|------------------  ------------------|
G|---0---0---0---0--  ------------------|
D|------------------  ----4---4---4---4-|
A|------------------  ------------------|
E|-3---3---3---3----  --2---2---2---2---|

Verse 1:

Icy wind of night be gone, this is not your domain
In the sky a bird was heard to cry
Misty morning whisperings and gentle stirring sounds
Belied a deathly silence that lay all around

Chorus:

Hear the lark and harken to the
barking of the dog-fox gone to ground
See the splashing of the kingfisher flashing to the water
And a river of green is sliding unseen beneath the trees
Laughing as it passes through
the endless summer making for the sea.

Verse 2:

In the lazy water meadow I lay me down
All around me golden sun-flakes settle on the ground
Basking in the sunshine of a bygone afternoon
Bringing sounds of yesterday into this city room

Chorus

Solo/Instrumental

Repeat Verse 2

Chorus

Тональность:

Это должно быть в ТОП-листе! - Топ-лист композиций



Назад
Рекомендуем посмотреть другие песни исполнителя «Pink Floyd»:

  • Комменты Fb ()
  • Комменты ВК



Добавить в Избранное Браузера
Сохранить здесь Очистить


x

0


+
-

+
-

-

Авторизация





Зарегистрироваться

M

Дата и время

  • 13:20:05
     

Социальные ссылки


Наши приложения

  • Muzbank App Play Market
  • Muzbank Amazon App