MUZBANK


МУЗЫКАЛЬНО-ИНФОРМАЦИОННЫЙ БАНК





PPink Floyd • Learning To Fly (аккорды и текст - chords & lyrics)


1385

Print

Видео «Learning To Fly (Pink Floyd)»

Видео клипы к песне подбираются автоматически сайтом youtube. Возможны некоторые несоответствия клипов песне.

↑ Спрятать рекламу ↑





rhythm figure: verse
   v-- with bar
E|----------/9⁄⁄7----0----2--2-|
B|--3-------/10⁄8----0----3--3-|
G|--0-------/9⁄⁄7----0----2--2-|
D|--0----------------0---------|
A|-------------------2---------|
E|--3--------------------------|

play fig 5 times. Lyrics start on third time.

chorus fig.
E|-------------------------------------------------|
B|--5-----5-----5----------------------------------|
G|--5-----5-----5---------------------------5----7-|
D|--5-----5-----5---------7----5----3----3--5----7-|
A|--3-----3-----3----2----7----5----3----3--3----5-|
E|------------------------5----3----1----1---------|

1st solo
E|-------------------------------15>14VVVVVV------------------------------|
B|-18>(20)vvvvvvvv⁄-----------------------------15>12--15>(17)vvvv--15>12-|
G|---------------------14>(16)--------------------------------------------|
D|------------------------------------------------------------------------|
A|------------------------------------------------------------------------|
E|------------------------------------------------------------------------|

E|-------------------------------------------------|
B|--(15)>14>12⁄/-14>12-----------------------------|
G|-----------------------11>(12)===>11--9--9⁄7-----|
D|----------------------------------------------5⁄-|
A|-------------------------------------------------|
E|-------------------------------------------------|

fills during the second verse;

...tips of my wings       Unheeded ...
E|--------------------------------------------------------------------|
B|---------------------------15---------------------------------------|
G|------------------14>(16)-------(16)>14>12--14--12⁄11>12------------|
D|-----------------------------------------------------------14vvvvvv-|
A|--------------------------------------------------------------------|
E|--------------------------------------------------------------------|

... of everything  No navigator...  ... find my way home....
E|----------------14---14---15vvvvv-------------------------------15vvvvvvv-|
B|--------------------------------------------------------------------------|
G|----------------14---14---16vvvvv--------------------------16-------------|
D|--------------------------------------------------------------------------|
A|--------------------------------------------------------------------------|
E|--------------------------------------------------------------------------|

... to stone
E|--------------------------------------------|
B|--------------------------------------------|
G|-------------(15)>14>12--12--14-12vvvvvvvvv-|
D|--------------------------------------------|
A|--------------------------------------------|
E|--------------------------------------------|

C     (B)  A5     G5    F5
   ... learning to fly
E|----------------------------------------------------|
B|----------------------------------8-----------------|
G|---------------------------7>(9)------(9)>7--5>7--5-|
D|----------------------------------------------------|
A|----------------------------------------------------|
E|----------------------------------------------------|

with chorus figure;

... determined to try...
E|----------------------------------8---------/8vvvvvvv-|
B|---5>(6)>5---------------------------10>8-------------|
G|--------------------------------------------/9vvvvvvv-|
D|------------------------------------------------------|
A|------------------------------------------------------|
E|------------------------------------------------------|

... circling skies...    ...earthbound misfit....
v----v- w/ bar
------------------8----------------------------------------------------------
-----------------------------------------------------------------------------
---------------------7>(9)>7-5vvvvvv------------(9)>7>5--7vvvv⁄/⁄/⁄/-⁄5⁄4⁄2--
-----------------------------------------------------------------------------
-----------------------------------------------------------------------------
-----------------------------------------------------------------------------

E|--------------------------------------------------5---------|
B|--/12>(13)vvvvvvvv------------------------------5---8-------|
G|-------------------------7>(9)--7>9--7⁄5--7>(9)-------7>(9)-|
D|------------------------------------------------------------|
A|------------------------------------------------------------|
E|------------------------------------------------------------|

E|---------------------------------------14VVVVVVVV-|
B|--------------------------------------------------|
G|---7>(9)>7>5---5-7>(9)vvvvvv⁄---12/14-------------|
D|-------------7------------------------------------|
A|--------------------------------------------------|
E|--------------------------------------------------|

C     (B)        A     G     F5
 There's no sensation to compare with this, suspended animation...

chorus figure over;

...bliss
E|---------------------------|
B|-------------------8-8-8-8-|
G|--------5--7>(9)-----------|
D|---------------------------|
A|---------------------------|
E|---------------------------|

solo 2

E|-----15⁄⁄-------15--------15--------15--------------------15-⁄-|
B|-18>(20)⁄---18>(20)---18>(20)---18>(20)---18>(20)⁄----18>(20)⁄-|
G|------------------------------------------18>(19)⁄-------------|
D|---------------------------------------------------------------|
A|---------------------------------------------------------------|
E|---------------------------------------------------------------|

E|0---0-0--0-------------------0---0-----------------------|
B|3/5-5-5--5--3----------------0---0-----------------------|
G|----------------4--0--2>(3)----------4⁄2----------0------|
D|---------------------------------------------2>0-----2>0-|
A|---------------------------------------------------------|
E|---------------------------------------------------------|

E|----------------------------------------------|
B|----------------------------------------------|
G|-12>(14)>12---14>(16)====>14>12vvvvv-------12-|
D|---------------------------------------14-----|
A|----------------------------------------------|
E|----------------------------------------------|

E|------------------------------------------------------|
B|-----15----15----15------------15----15---15----------|
G|-14>(16)--(16)-->14--12----14>(16)--(16)->14--12------|
D|---------------------------------------------------14-|
A|------------------------------------------------------|
E|------------------------------------------------------|

E|--------------------------------------------------3vvvv-------5----------|
B|--15--15------15------------------------------/5----------5------5vvvvvv-|
G|--12--12--14>(16)--------------------------0-----------------------------|
D|--------------------16----12---12vvvvvv----------------------------------|
A|-------------------------------------------------------------------------|
E|-------------------------------------------------------------------------|

E|-----------------------------------------------------------------|
B|-----------------------------------------------------------------|
G|------------------------------------------7----------------------|
D|----9⁄7--5------5--7>(8)--7--5-------7/9-----8⁄7>5------5vvvvvvv-|
A|------------7--------------------7-------------------7-----------|
E|-----------------------------------------------------------------|

E|-0----0--0--0--0----------------------------------------------------|
B|-3/5--5--5--3--0----------------------------------------------------|
G|-------------------2>(3)>2>0------2>(3)>2>0------0-2>(3)>2>0--------|
D|------------------------------2--------------2----------------2---0-|
A|--------------------------------------------------------------------|
E|--------------------------------------------------------------------|

E|------------------------------------------------|
B|----------------------15------------------------|
G|-(15)>14>12--14>(16)-------12>14---12vvvvvvvvvv-|
D|------------------------------------------------|
A|------------------------------------------------|
E|------------------------------------------------|

Тональность:

Это должно быть в ТОП-листе! - Топ-лист композиций



Назад
Рекомендуем посмотреть другие песни исполнителя «Pink Floyd»:

  • Комменты Fb ()
  • Комменты ВК



Добавить в Избранное Браузера
Сохранить здесь Очистить


x

0


+
-

+
-

-

Авторизация





Зарегистрироваться

M

Дата и время

  • 19:19:08
     

Социальные ссылки


Наши приложения

  • Muzbank App Play Market
  • Muzbank Amazon App