MUZBANK


МУЗЫКАЛЬНО-ИНФОРМАЦИОННЫЙ БАНК





PPink Floyd • Mother (аккорды и текст - chords & lyrics)


1328

Print

Видео «Mother (Pink Floyd)»

Видео клипы к песне подбираются автоматически сайтом youtube. Возможны некоторые несоответствия клипов песне.

↑ Спрятать рекламу ↑






G                                       C  D G
Mother do you think they'll drop the bomb?
G                                        C D G
Mother do you think they'll like this song?
C                                               G
Mother  do you think they'll try to break my balls?

D         C                                   G
Ohhhh..   Ahhhh.. Mother should I build the wall?

G                               C  D G
Mother should I run for president?
G                                   C D G
Mother should I trust the government?
C                                         G
Mother will they put me in the firing line?
D         C                                         G
Ohhhh...  Ahhhhh.. Mother is it just a waste of time?

G                         C
Hush now baby don't you cry.
F                             C
Mama's gonna make all of your nightmares come true
F                           C
Mama's gonna put all of her fears into you,
F                                 C
Mama's gonna keep you right here, under her wing,
F                              C
She won't let you fly, but she might let you sing,
F                       C        G
Mama's gonna keep baby cozy and warm.

D         C
Ohhhh...  Babe,
D         C
Ohhhh...  Babe,
D            C                                       G
Ohh... Babe, of course mama's gonna help build the wall.

SOLO:
E|---------------------------------------------------|
B|-----13>(14)----13>(14)>13>12----------------------|
G|-12-----------------------------14>13>14-----------|
D|-------------------------------------------------5-|
A|-------------------------------------------2/7-----|
E|---------------------------------------------------|

E|------------------------|
B|------------------------|
G|------------------------|
D|----5--4----------------|
A|-7--------5---3>2--3vvv-|
E|------------------------|

E|-----------------------------------------------------|
B|------10>(12)=======>10--8--10>(13)---8------------x-|
G|-2/7--------------------------------------9>8>9--x---|
D|-----------------------------------------------------|
A|-----------------------------------------------------|
E|-----------------------------------------------------|

E|-12>(14)==>12>10-|
B|-----------------|
G|-----------------|
D|-----------------|
A|-----------------|
E|-----------------|

E|--------10>(12)==>10>8--8>7--8>7--------------------------|
B|----x-----------------------------8-----------------------|
G|-x------------------------------------7---6---4-----------|
D|--------------------------------------------------5vvvvv⁄-|
A|----------------------------------------------------------|
E|----------------------------------------------------------|

G                                    C      G
Mother do you think she's good enough..   for me?
G                                    C      G
Mother do you think she's dangerous..     to me?
C                                       G
Mother will she tear your little boy apart?
D         C
Oohhhh..   Aaahhh...
G                             C
Mother will she break my heart?

G                          C
Hush now baby don't you cry.
F                                  C
Mama's gonna cheak out all of your girlfriends for you,
F                    C
Mama won't let anyone dirty get through,
F                    C
Mama's gonn wait up, untill you get in,
F                         C
Mama will always find out just where you've been,
F                       C                G
Mama's gonna keep baby, healthy and clean.
D            C
Ooohhhh...  Baby,
D            C
Ooohhhh...  Baby,
D       C       G
Ooohhhh baby, you'll always be baby to me.

G                           C
Mother did it need to be so high?

Тональность:

Это должно быть в ТОП-листе! - Топ-лист композиций



Назад
Рекомендуем посмотреть другие песни исполнителя «Pink Floyd»:

  • Комменты Fb ()
  • Комменты ВК



Добавить в Избранное Браузера
Сохранить здесь Очистить


x

0


+
-

+
-

-

Авторизация





Зарегистрироваться

M

Дата и время

  • 10:47:11
     

Социальные ссылки


Наши приложения

  • Muzbank App Play Market
  • Muzbank Amazon App