MUZBANK


МУЗЫКАЛЬНО-ИНФОРМАЦИОННЫЙ БАНК





PPink Floyd • One Of The Few (аккорды и текст - chords & lyrics)


597

Print

Видео «One Of The Few (Pink Floyd)»

Видео клипы к песне подбираются автоматически сайтом youtube. Возможны некоторые несоответствия клипов песне.

↑ Спрятать рекламу ↑






synth drone D

INTRO:(w/clock and cars)
E|-------------------------------------|
B|-------------------------------------|
G|-------------------------------------|
D|------------------0----------------0-|
A|-------------------------------------|
E|-------------------------------------|

E|------------------------------------------------------------|
B|---11--11-----------10--10-------⁄---8---8---⁄-6-⁄--3-----3-|
G|------------------------------------------------------------|
D|-0----------------0---0------------0---0------------0-------|
A|------------------------------------------------------------|
E|------------------------------------------------------------|

E|------------------------------------------------------------|
B|---13--13-----------11--11-----------8---8---⁄-6-⁄--3-----3-|
G|------------------------------------------------------------|
D|-0---0------------0---0------------0---0-----0------0-------|
A|------------------------------------------------------------|
E|------------------------------------------------------------|

VERSE:
E|------------------------------------------------------------|
B|---11--11-----------10--10-----------8---8-----6-⁄--3-----3-|
G|------------------------------------------------------------|
D|-0---0------------0---0------------0---0------------0-------|
A|------------------------------------------------------------|
E|------------------------------------------------------------|


E|-------------------------------------------------------------|
B|---13--13----------11--11-------8---8-----6-⁄--3-----3-----3-|
G|-------------------------------------------------------------|
D|-0---------------0---0--------0---0-----0------0-------------|
A|-------------------------------------------------------------|
E|-------------------------------------------------------------|


fade in schoolyard sounds
E|-------------------------------------------------------------|
B|---11--11-----------10--10------8---8-----6-⁄--3-----3-5---6-|
G|-------------------------------------------------------------|
D|-0---0------------0---0-------0---0------------0-------------|
A|-------------------------------------------------------------|
E|-------------------------------------------------------------|


E|------------------------------------------------------|
B|---13--13-----------11--11-----------8---8-----6-⁄--3-|
G|------------------------------------------------------|
D|-0---0------------0---0------------0---0-----0------0-|
A|------------------------------------------------------|
E|------------------------------------------------------|

When you're one of the few
To land on your feet
What do you do to make ends meet? "Teach" (w/echo repeats)

Make 'em mad
Make 'em sad
Make 'em add two and two

Or make 'em me
Or make 'em you
Make 'em do what you want them to [Laugh]

Make them laugh
Make 'em cry
Make 'em lay down and die

Тональность:

Это должно быть в ТОП-листе! - Топ-лист композиций



Назад
Рекомендуем посмотреть другие песни исполнителя «Pink Floyd»:

  • Комменты Fb ()
  • Комменты ВК



Добавить в Избранное Браузера
Сохранить здесь Очистить


x

0


+
-

+
-

-

Авторизация





Зарегистрироваться

M

Дата и время

  • 17:56:52
     

Социальные ссылки


Наши приложения

  • Muzbank App Play Market
  • Muzbank Amazon App