MUZBANK


МУЗЫКАЛЬНО-ИНФОРМАЦИОННЫЙ БАНК





PPink Floyd • Poles Apart (аккорды и текст - chords & lyrics)


634

Print

Видео «Poles Apart (Pink Floyd)»

Видео клипы к песне подбираются автоматически сайтом youtube. Возможны некоторые несоответствия клипов песне.

↑ Спрятать рекламу ↑





TUNING: DADGAD

INTRO:
D|-------------0-----------------0-------|
A|-------0-----------0-----0-----------0-|
G|----7-----------------6-----------6----|
D|----------5-----5-----------5----------|
A|---------------------------------------|
D|---------------------------------------|

D|-------------0-----------------0-------|
A|-------0-----------0-----0-----------0-|
G|----4-----------------6-----------6----|
D|----------5-----5-----------5----------|
A|---------------------------------------|
D|---------------------------------------|

D|-------------0-----------------0-------|
A|-------0-----------0-----0-----------0-|
G|----7-----------------6-----------6----|
D|----------5-----5-----------5----------|
A|---------------------------------------|
D|---------------------------------------|
  ________________________________________
 1.-3                                      3x
D|-------------0-----------------0----------|
A|-------0-----------0-----0-----------0----|
G|----4-----------------6-----------6-----*-|
D|----------5-----5-----------5-----------*-|
A|------------------------------------------|
D|------------------------------------------|
  _______________________________________
 4.
D|-------------0-----------------0-------|
A|-------0-----------0-----0-----------0-|
G|----4-----------------2-----0-----0----|
D|----------5-----5----------------------|
A|---------------------------------------|
D|---------------------------------------|

Rhythm figure 1
D|-----------------------------------------|
A|-------------------0---------------------|
G|-------------0-----------------0---------|
D|-------4--------4--------4-------------4-|
A|----------0-----------------0------------|
D|----0-----------------0-----------(0)----|

D|-----------------------------------------|
A|-------------------0---------------------|
G|-------------0-----------------0---------|
D|-------4--------4--------4-------------4-|
A|----------0-----------------0------------|
D|----0-----------------0-----------(0)----|

D|-----------------------------------------|
A|-------------------0---------------------|
G|-------------0-----------------0---------|
D|-------4--------4--------4-------------4-|
A|----------0-----------------0------------|
D|----0-----------------0-----------(0)----|

D|-----------------------------------------|
A|-------------------0---------------------|
G|-------------0-----------------0---------|
D|-------4--------4--------4-------------4-|
A|----------0-----------------0------------|
D|----0-----------------0-----------(0)----|

Rhythm figure 2
D|------------------------------------|
A|-------------------0----------------|
G|-------------0-----------------0----|
D|-------0--------0--------0--------0-|
A|----------5-----------------5-------|
D|----5-----------------5-------------|

D|------------------------------------|
A|-------------------0----------------|
G|-------------0-----------------0----|
D|-------0--------0--------0--------0-|
A|----------5-----------------5-------|
D|----5-----------------5-------------|

D|------------------------------------|
A|-------------------0----------------|
G|-------------0-----------------0----|
D|-------0--------0--------0--------0-|
A|----------5-----------------5-------|
D|----5-----------------5-------------|

D|------------------------------------|
A|-------------------0----------------|
G|-------------0-----------------0----|
D|-------0--------0--------0--------0-|
A|----------5-----------------5-------|
D|----5-----------------5-------------|

VERSE:(with Rhy. figs 1 and 2)
Did you know
it was all going to go
so wrong for you?
And did you see
it was all going to be
so right for me?

D|---------------------------------------------------------|
A|-------------------------------------------------------0-|
G|-------------------------------------------------------0-|
D|----2/4-------2-----0----------------------------------4-|
A|---------------------------2/4--------2--------0---------|
D|---------------------------------------------------------|
     Why      did   we      tell      you      then,     You

D|-------------------------------------------------------------|
A|----0--0---------------------------------------------0--0--0-|
G|-------0-------------------0-------------0---0-------0-----0-|
D|----5--4-----2-----0-------0-------------0---0-------4--5--4-|
A|-------------------------2h4--------2p0--2---2--0------------|
D|-------------------------------------------------------------|
    were  al - ways  the   gold - en   boy then,  And that you'd

D|-----------------------------------------|
A|-----------------------------------------|
G|-----------------------------------------|
D|-----------------------0--0--0----0--0---|
A|------2------0-------2h4--4--2p0---------|
D|----------------------------------5--5p4-|
       nev - er       lose that light in your eyes.

Hey you,
did you ever realize
what you had become?
And did you see
that it wasn't only me
you were running from?

Did you know all the time
but it never bothered you anyway?
Leading the blind while I stared out the steel in your eyes.

INTERLUDE

VERSE:
The rain fell slow
Down on all the roofs of uncertainty
I thought of you
And the years and all the sadness fell away from me.

And did you know? (echo)

I never thought that you'd lose that light in your eyes.

OUTRO SOLO

Тональность:

Это должно быть в ТОП-листе! - Топ-лист композиций



Назад
Рекомендуем посмотреть другие песни исполнителя «Pink Floyd»:

  • Комменты Fb ()
  • Комменты ВК



Добавить в Избранное Браузера
Сохранить здесь Очистить


x

0


+
-

+
-

-

Авторизация





Зарегистрироваться

M

Дата и время

  • 14:26:31
     

Социальные ссылки


Наши приложения

  • Muzbank App Play Market
  • Muzbank Amazon App