MUZBANK


МУЗЫКАЛЬНО-ИНФОРМАЦИОННЫЙ БАНК





PPink Floyd • Shine On You Crazy Diamond Part 1 (аккорды и текст - chords & lyrics)


572

Print

Видео «Shine On You Crazy Diamond Part 1 (Pink Floyd)»

Видео клипы к песне подбираются автоматически сайтом youtube. Возможны некоторые несоответствия клипов песне.

↑ Спрятать рекламу ↑






  Gm
E|-------------------------------------------------------------|
B|-18b(20)~--18--18b(20)~--------------------------------------|
G|-------------------------------15--17--17b(19)--17--17b(19)~-|
D|---------------------------17--------------------------------|
A|-------------------------------------------------------------|
E|-------------------------------------------------------------|

  Dm
E|-------------------------------------------------|
B|-------------------------------------------------|
G|---------17b(19)r17p15--17---17b(19)--17-17b(19)-|
D|-------------------------------------------------|
A|-------------------------------------------------|
E|-------------------------------------------------|

  Cm
E|-------------------------------------------------------------|
B|-10h11p10----10----------------------------------------------|
G|----------12----10-10----10--12-b(15)r12---12b(15)---(15)r12-|
D|----------------------12-------------------------------------|
A|-------------------------------------------------------------|
E|-------------------------------------------------------------|

E|-------------------------------------------------------------|
B|----------------------------------------------------------18-|
G|---10h12--12b(15)~--12b(15)-r12----10--12--12~---17b(19)-----|
D|-------------------------------------------------------------|
A|-------------------------------------------------------------|
E|-------------------------------------------------------------|

  Gm
E|-----------------15--18~---18b(20)---18⁄~--------------------|
B|-18b(20)-18b(20)---------------------------------------------|
G|----------------------------------------------17-b(18)r17-15-|
D|-------------------------------------------------------------|
A|-------------------------------------------------------------|
E|-------------------------------------------------------------|

E|-------------------------------------------------------------|
B|-------------------------------------------------------------|
G|---------10--12~---------12b(15)-(15)-(15)---r12------10h12~-|
D|-----12------------------------------------------------------|
A|-------------------------------------------------------------|
E|-------------------------------------------------------------|

  Dm
E|-------------------------------------------------------------|
B|----------------------------------------------------------18-|
G|-------------17b(19)r17p15--17----17b(19)~--------17b(19)----|
D|-------------------------------------------------------------|
A|-------------------------------------------------------------|
E|-------------------------------------------------------------|

E|---------15--------------------------------------------------|
B|-18b(20)----18b(20)~-18b(20)r18-15---------------------------|
G|-----------------------------------17b(19)~-17b(19)r17p15-17-|
D|-------------------------------------------------------------|
A|-------------------------------------------------------------|
E|-------------------------------------------------------------|

  Cm Dm
E|-------------------------------------------------------------|
B|----------------------------------------------------------18-|
G|--17----------------15~-17b(19)r17p15-17--17b(19)-17b(19)----|
D|------------15/17--------------------------------------------|
A|-------------------------------------------------------------|
E|-------------------------------------------------------------|

  Gm
E|--------------------------15----18-------------18--20b(22)-|
B|------------------18b(20)----------------------------------|
G|--17b(19)----------------------------------19--------------|
D|-----------------------------------------------------------|
A|-----------------------------------------------------------|
E|-----------------------------------------------------------|

                   Segue to Part II
E|-----18-b(20)-r18--17-------15-|
B|-----------------------18------|
G|-------------------------------|
D|-------------------------------|
A|-------------------------------|
E|-------------------------------|

Тональность:

Это должно быть в ТОП-листе! - Топ-лист композиций



Назад
Рекомендуем посмотреть другие песни исполнителя «Pink Floyd»:

  • Комменты Fb ()
  • Комменты ВК



Добавить в Избранное Браузера
Сохранить здесь Очистить


x

0


+
-

+
-

-

Авторизация





Зарегистрироваться

M

Дата и время

  • 19:01:32
     

Социальные ссылки


Наши приложения

  • Muzbank App Play Market
  • Muzbank Amazon App