MUZBANK


МУЗЫКАЛЬНО-ИНФОРМАЦИОННЫЙ БАНК





PPink Floyd • Shine On You Crazy Diamond Part 3 (аккорды и текст - chords & lyrics)


571

Print

Видео «Shine On You Crazy Diamond Part 3 (Pink Floyd)»

Видео клипы к песне подбираются автоматически сайтом youtube. Возможны некоторые несоответствия клипов песне.

↑ Спрятать рекламу ↑





VERSE:
Remember when you where young.......
E|------------------------------------3------|
B|---------------------------------3--3------|
G|----3-----5>(7)>5----------------3---------|
D|-5-----5------------4---------3------------|
A|------------------------------1----------5-|
E|-------------------------------------------|

Shine on you crazy.......

E|------------------------------------------------|
B|------------------------------------------------|
G|------------------------------------------------|
D|-8---8---5---3---3------------------------------|
A|-6---5---3---1---3---3>(5)>3--------------------|
E|-----------------1-------------1vvvv---1--2vvvv-|

Now there's a look.....

E|---------------------------------------------|
B|---6>(8)>6---------2------------3--3--3------|
G|------------5>(7)---------------3--3--3------|
D|----------------------------3---3--3---------|
A|----------------------------1-------------5⁄-|
E|---------------------------------------------|

Shine on you crazy.....
E|------------------------13--13--13--10--8/10--1-|
B|------------------------13--13--13--10--8/10--1-|
G|--8---8---5---3---------------------------------|
D|--6---5---3---1---------------------------------|
A|-------------------1----------------------------|
E|------------------------------------------------|

You were cought in the crossfire....
and
Well you wore out your welcome...

E|--------------------------------------------------------------|
B|--------------------------------------------------------------|
G|----3--5--5>(7)>5-------3--5--5>(7)>5>3-----3--5--5>(7)>5-----|
D|-5-------------------4-------------------3------------------2-|
A|--------------------------------------------------------------|
E|--------------------------------------------------------------|

E|--------------------------------------------------------------------1---2---|
B|----------------------------------------5---------------6-----------------3-|
G|----------------8-----8--------------6-----6---------7-----7----------------|
D|----------------8>10--8-----------5----------------8----------8--0----0-----|
A|-3--5--6--8/10-----------10⁄7--7--------------7--8--------------------------|
E|----------------------------------------------------------------------------|

interlude is part 4

You reached for the ...
E|--------------------------------------------------------3------------|
B|---------------------11--13>(15)>13-----------------3---3---3--------|
G|----------------------3---5>(7)>5--->3--------------3-------3--------|
D|--5-----------------------------------------4---3--------------------|
A|------------------------------------------------1------------------5-|
E|--3------------------------------------------------------------------|

Shine on you crazy....
E|----------------------------------------------------------|
B|----------------------------------------------------------|
G|----------------------------------------------------------|
D|--8---8---5---3-------------------------------------------|
A|--6---5---3---1--------3---3>(5)--3-----------------------|
E|-------------------1---1-------------3>(5)---1vvvvvv--1/2-|

threatened by shadows...
E|----------------------------------------------------------|
B|--6>(8)>6>(8)>6--6-----------------------------3-----3----|
G|--------------------5>(7)---3>5>3vvvvvv--------3--3--3----|
D|--------------------------------------------3--3--3-----3-|
A|--------------------------------------------1-------------|
E|----------------------------------------------------------|

Shine on you crazy.....
E|-----------------------13--13--13--10--8⁄1-|
B|-----------------------13--13--13--10--8⁄1-|
G|-------------------------------------------|
D|--8--8--5--3-------------------------------|
A|--6--5--3--1-------------------------------|
E|----------------1--------------------------|

Тональность:

Это должно быть в ТОП-листе! - Топ-лист композиций



Назад
Рекомендуем посмотреть другие песни исполнителя «Pink Floyd»:

  • Комменты Fb ()
  • Комменты ВК



Добавить в Избранное Браузера
Сохранить здесь Очистить


x

0


+
-

+
-

-

Авторизация





Зарегистрироваться

M

Дата и время

  • 18:11:25
     

Социальные ссылки


Наши приложения

  • Muzbank App Play Market
  • Muzbank Amazon App