MUZBANK


МУЗЫКАЛЬНО-ИНФОРМАЦИОННЫЙ БАНК





PPink Floyd • Sorrow (аккорды и текст - chords & lyrics)


992

Print

Видео «Sorrow (Pink Floyd)»

Видео клипы к песне подбираются автоматически сайтом youtube. Возможны некоторые несоответствия клипов песне.

↑ Спрятать рекламу ↑





INTRO:
E|--------------------------------------------------|
B|--------------------------------------------------|
G|--------------------------------------------------|
D|--------------------------------------------------|
A|---------------------5/7-7vvvvvv--7/9⁄7⁄5vvvvvvvv-|
E|---/0vvvvvvvvvvv----------------------------------|

E|--------------------------------------|
B|--------------------------------------|
G|--------------------------------------|
D|--------------------------------------|
A|------2/5-5vvvvvvv--------------------|
E|----3-----------------/0⁄/vvvvvvvvvvv-|

E|-------------------------------------------------------------|
B|-------------------------------------------------------------|
G|-------------------------------------------------------------|
D|-------------------------------------------------------------|
A|-5/7-7vvvv---7/9⁄7⁄5vvvv---2/5-(3)>5⁄-0vvvvvv----------------|
E|-------------------------3---------------------/0vvvvvvvvvv⁄-|

E|-------------------------------------------------------------|
B|-------------------------------------------------------------|
G|-------------------------------------------------------------|
D|-------------------------------------------------------------|
A|--5/7-7vvvvvvvv--7/9⁄7⁄5vvvvv-------2/5-5vvvvv--5/7-7vvvvvvv-|
E|--------------------------------3----------------------------|

E|-------------------------------------------------|
B|-------------------------------------------------|
G|-------------------------------------------------|
D|-------------------------------------------------|
A|---7/9⁄7⁄5vvvvvvv--------2/5(3)>5--5vvvvvvvvvv---|
E|--------------------3----------------------------|

E|-------------------------|
B|-------------------------|
G|-----------"9"⁄⁄⁄/⁄⁄-----|
D|-------------------------|
A|-------------------------|
E|-/0vvvvvvvvvvvvvvvvvvvvv-|

E|---------------------|
B|---------------------|
G|---------------------|
D|---------------------|
A|---------------------|
E|---///////0vvvvvvvvv-|

    Em
E|------------------------------|
B|------------------------------|
G|----------------------------7-|
D|----0⁄----------------------7-|
A|----0⁄----------------------5-|
E|------------------------------|

guitar 2;       ----|
--------------------| "3">("-4")-|        a harmonic at the third fret,
--------------------|        but depress the bar first, so
--------------------|        it sounds like your going up to
--------------------|        it, than dive w/bar to fret -4.

D/E                               C/E           EM2
E|-"12">("10)----------------------------------|
B|-------/3>(1)--"12"⁄"7"/"12"-----------------| (0)--"12"⁄"7"/"12"-----------------|  guitars. You
D|-------/0>(-2)-------------------------------|  can probably
A|---------------------------------------------|  figure out
E|-----------------------------3/6--0vvvvvvvv⁄-|  the arangment
   one bar between chord changes.
   v
D/E   Em2
E|----------------------|
B|-15--15>(17)======>15-|0---------------------------|
D|-7/9⁄7-⁄----------------------------------------------------|
A|-5/7⁄5-⁄----------------------------------------------------|
E|------------------------------------------------------------|

E|--0-----------0---0---0---0---------------------------------|
B|--0----2>3>2--0---0---0---0---------------------------------|
G|-----------------------------'2'>'3'>'2'vvvvv--2>0--2vvvvvv-|
D|------------------------------------------------------------|
A|------------------------------------------------------------|
E|------------------------------------------------------------|

E|-------------------------------------------------------------|
B|-------------------------------------------------------------|
G|---------------------------------------------------9-7vvvvvv-|
D|-/2--5--/0---5--2>0------5-------------------------9-7vvvvvv-|
A|---------------------2>0-----2>0----------------/7-----------|
E|-----------------------------------3--0vvvvvvvv--------------|

E|---------------------0---------------------------------------|
B|-/0--------------3/5---5vvvvv--------------------------------|
G|-----2>(4)>2vvvv---------------2-⁄/-⁄/vvvvvv---2--2/4>0-2vvv-|
D|-------------------------------------------------------------|
A|-------------------------------------------------------------|
E|-------------------------------------------------------------|

E|----------------------------------------------------0-|
B|-----------------------------------------------3/5----|
G|-0>2--2vvvv----2>3>2>0--2--0>2vvvv⁄/vvvvv>0-----------|
D|------------------------------------------------------|
A|------------------------------------------------------|
E|------------------------------------------------------|

E|-0-5>0-0-3>0-0-5>0-0-3>0-0-5>0-0--3---2--2-⁄/-⁄/-⁄/-⁄/-vvvvv-|
B|----------------------------------5---3--3-⁄/-⁄/-⁄/-⁄/-vvvvv-|
G|-------------------------------------------------------------|
D|-------------------------------------------------------------|
A|-------------------------------------------------------------|
E|-------------------------------------------------------------|

E|-------0-----------------------------------------------------|
B|-(3)>5---3>0-------------------------------------------------|
G|-------------2>(3)>2>0-----2---------------------------------|
D|------------------------2------2----0>2>0--------------------|
A|-------------------------------------------------------------|
E|--------------------------------------------⁄5---0vvvvvvvvvv-|

E|----------12-14-15-17>(19)vv-17>(19)>17>15-17>(19)>17>15-17v-|
B|-15>(17)⁄----------------------------------------------------|
G|-------------------------------------------------------------|
D|-------------------------------------------------------------|
A|-------------------------------------------------------------|
E|-------------------------------------------------------------|

E|-17>(19)vvvvvvv--15-17vvvvvv⁄--0--0-----0--------------------|
B|-------------------------------0--3/5---5------5⁄3>0---------|
G|-------------------------------------------------------2>(4)-|
D|-------------------------------------------------------------|
A|-------------------------------------------------------------|
E|-------------------------------------------------------------|

E|-------------------------------------------------------------|
B|-------------------------------------------------------------|
G|-2>(4)>2>0-----2>0-------------------------------------------|
D|------------2-------2--0--2----------------------------------|
A|--------------------------------0----------------------------|
E|-----------------------------3-----3---0---0----/////0vvvvvv-|

E|----------------------------/5--0----------------------------|
B|----------------------------/5-----5vvvvvv--8--8vvvv--7--7>8-|
G|-2>(4)---'0'vvvvv------------------------------7vvvv---------|
D|-------------------2vvvvvv-----------------------------------|
A|-------------------------------------------------------------|
E|-------------------------------------------------------------|

E|------------------------------------------------------------|
B|-8>(10>8>7-----8>7------------------------------------------|
G|------------9-------9>7---9>7----------2>0------------------|
D|--------------------------------9⁄7>5------2>0--------------|
A|-------------------------------------------------5>(7)vvvv⁄-|
E|------------------------------------------------------------|

E|-------------------12-14-15-15>(17)vvvvv-15-14>(12)-15vvvvvv-|
B|-15>(17)=====>(15)-------------------------------------------|
G|-------------------------------------------------------------|
D|-------------------------------------------------------------|
A|-------------------------------------------------------------|
E|-------------------------------------------------------------|

E|--14>12----------------12------------------------------------|
B|---------15vvvvvvvvv--------------15-------------------------|
G|--------------------------14>(16)-----14vvvvvv---4---2vvvvvv-|
D|-------------------------------------------------------------|
A|-------------------------------------------------------------|
E|-------------------------------------------------------------|

E|------------------------------------------------|
B|---------------------------------7-------/8---0-|
G|---------------------------------7--------------|
D|-2---2---2>0----2vvvvvvvv>0------7--7--0--------|
A|------------------------------------------------|
E|------------------------------------------------|

E|------------------------------------------------------|
B|-15>(17)vvvvvvv>15>12--14>(15)>12---------------------|
G|-------------------------------------14>(16)>14---12⁄-|
D|------------------------------------------------------|
A|------------------------------------------------------|
E|------------------------------------------------------|

E|----14vvvvvvv-14>(15)>14>12-14vvvvv⁄/vvvvvv-12-14-15-15>17vv-|
B|-12----------------------------------------------------------|
G|-------------------------------------------------------------|
D|-------------------------------------------------------------|
A|-------------------------------------------------------------|
E|-------------------------------------------------------------|

E|-15>(17)--15--14>12--14>(15)========>14>12---12--------------|
B|-------------------------------------------15--15>(17)vvvvv⁄-|
G|-------------------------------------------------------------|
D|-------------------------------------------------------------|
A|-------------------------------------------------------------|
E|-------------------------------------------------------------|

E|---------------------------------------|
B|-----15VVVVvvvvvvvv-15>(17)>VVVVVVVVVV-|
G|-14------------------------------------|
D|---------------------------------------|
A|---------------------------------------|
E|---------------------------------------|

E|-------------------------------------------------------------|
B|----0--------------------------------------------------------|
G|---------12-⁄/-⁄/-14>(16)vvvvv-/12-14-14>(16)>14--12---------|
D|------14----------------------------------------------14vvv⁄-|
A|-------------------------------------------------------------|
E|-12----------------------------------------------------------|

E|--------------------0-0---------0---0---0--------------------|
B|--------------------0-0-3/5-3>0-0---0---5--------------------|
G|-0-'2'vvvv-0>2vvvvv------------------------2>0---------------|
D|-----------------------------------------------2>0----2vvvvv-|
A|-------------------------------------------------------------|
E|-------------------------------------------------------------|

E|--------------------------------------------------------|
B|--------------------------------------------------------|
G|-0------------------------------------------------------|
D|----2>0--------------------0>2--0>2--5>2--5/7--7vvvvvvv-|
A|--------2>0----5----------------------------------------|
E|------------3-----3---0---------------------------------|

E|-------------------------------------------------|
B|-------------------------------------------------|
G|-------0-------2>(3)>2>0---2>0-------------------|
D|-0--2-----0>2--------------------2/4⁄2--0vvvvvvv-|
A|-------------------------------------------------|
E|-------------------------------------------------|

E|-----12------12------12------11-------12vvvvvvvv-|
B|-15>(17)-15>(17)-15>(17)-14>(16)--15>(17)vvvvvvv-| (17)vvvv-15>(17)vvv-17>(19)vv-19>(20)vvvvv-|
G|----------------------------------------------|
D|----------------------------------------------|
A|----------------------------------------------|
E|----------------------------------------------|

E|---------------------|
B|-19>(20)vvvv-19>(20)-|
G|---------------------|
D|---------------------|
A|---------------------|
E|---------------------|

E|-----17vvvv-----17vvvvvv-----17------17------17--|
B|-20>(22)vvv-20>(22)vvvvv-20>(22)-20>(22)-20>(22)-|
G|-------------------------------------------------|
D|-------------------------------------------------|
A|-------------------------------------------------|
E|-------------------------------------------------|

E|-----17------17---------19-|
B|-20>(22)-20>(22)-20>(22)---|
G|---------------------------|
D|---------------------------|
A|---------------------------|
E|---------------------------|

E|-19vvvvv--19vvvvvvvvvvv⁄--------------------------|
B|--------------------------------------------------|
G|-----------------------------2>(3)>2>0------------|
D|-----------------------------------------2vvvvvvv-|
A|--------------------------------------------------|
E|--------------------------------------------------|

E|----0--------------------------------------------------------|
B|-------12-VVVVVVV⁄-------------------------------------------|
G|/9-----12-VVVVVVV⁄--7----------------------------------------|
D|-------12-VVVVVVV⁄--7--7>(8)>7>5-7vvvv-----------------------|
A|---------------------------------------7-7-------------5-----|
E|-------------------------------------------5>(6)>5-3-0---3-0-|

E|-------------------------------------------------------------|
B|-----------------------------------------------------------7-|
G|-------------------------------------------------7--9--7-9---|
D|-2--2--4--4/5--4--'5'--5/7--5--4--7/9vvvv---7--9-------------|
A|-------------------------------------------------------------|
E|-------------------------------------------------------------|

E|--------------------------------------------|
B|-8>7>5----5>3>0---3>0-----------------------|
G|--------7-------2---------------------------|
D|-----------------------2>0--5--2>0----------|
A|-------------------------------------2------|
E|----------------------------------------3/5-|

Fills:
------

Fill A
E|----------------|
B|-7--------------|
G|---7-----7vvvvv-|
D|------9---------|
A|----------------|
E|----------------|

Fill B
E|----------|
B|----------|
G|----------|
D|----------|
A|----------|
E|-10⁄3--0⁄-|

Fill C
E|-----------|
B|-----------|
G|-----------|
D|-----2-----|
A|-----------|
E|2/3------3-|

Fill D
E|----------|
B|----------|
G|----------|
D|-----0----|
A|1/2-------|
E|--------0-|

Тональность:

Это должно быть в ТОП-листе! - Топ-лист композиций



Назад
Рекомендуем посмотреть другие песни исполнителя «Pink Floyd»:

  • Комменты Fb ()
  • Комменты ВК



Добавить в Избранное Браузера
Сохранить здесь Очистить


x

0


+
-

+
-

-

Авторизация





Зарегистрироваться

M

Дата и время

  • 18:33:53
     

Социальные ссылки


Наши приложения

  • Muzbank App Play Market
  • Muzbank Amazon App