MUZBANK


МУЗЫКАЛЬНО-ИНФОРМАЦИОННЫЙ БАНК





PPink Floyd • The Thin Ice (аккорды и текст - chords & lyrics)


612

Print

Видео «The Thin Ice (Pink Floyd)»

Видео клипы к песне подбираются автоматически сайтом youtube. Возможны некоторые несоответствия клипов песне.

↑ Спрятать рекламу ↑






INTRO:(with baby crying)
C           Am7           Fmaj9       G
C     G     F     C/G     Am7

VERSE:
C               Am
Mamma loves her baby
F               G
and daddy loves you too
C                    Am
and the sea may look warm to you babe
F                    G
and the sky may look blue

C  G  F  C/G  Am
Ooooooooooooh babe
C  G  F  C/G  Am    Am7  Am6
Oooooooh baby blue
C  G  F  C  Am  D7  G
Ooooooooooh ooooooh babe

C                Am
If you should go skating
      F                        G
On the thin ice of modern life
C                       Am
Dragging behind you the silent reproach
    Fmaj7                 G
Of a million  tear stained eyes
C                         Am
Dont be surprised, when a crack in the ice
F                  G
Appears under your feet
        C                     Am
You slip out of your depth and out of your mind
         F                        G
With your fear flowing out  behind you
N.C.
As you claw the thin ice

SOLO:
  Gtr. 1
E|--------------------------------------------------------|
B|--------------------------------------------------------|
G|--7B(9)---R---(7)-7~~~~~~~~~~~~~~~7B(10)--R---(7)-7B(9)-|
D|--------------------------------------------------------|
A|--------------------------------------------------------|
E|--------------------------------------------------------|
  Gtr. 2
E|-------------------------------------------------------------|
B|-------------------------------------------------------------|
G|--9---------------7---------X-X-X-10----------9--------------|
D|--9---------------7---------X-X-X-10----------9--------------|
A|--7---------------5---------X-X-X-8-----------7--------------|
E|-------------------------------------------------------X-12⁄-|

                                                           w/bar
E|----------5---5----------------------------------------------|
B|--------5---8------------------------------------------------|
G|---7B(9)--------7-7B(8)R(7)P5---5----------------------------|
D|------------------------------7---7-6-5----------------------|
A|----------------------------------------7-6-5-3---3--⁄(0)/-⁄-|
E|------------------------------------------------5------------|
                                                      *   w/bar
E|-------------------------------------------------------------|
B|-------------------------------------------------------------|
G|2------------------------------------------------------------|
D|2------------------------------------------------------------|
A|0------------------------------------------------------------|
E|-------------------------------------------------(-12)/----0-|
*depress bar equivalent to 12 frets down, strike note & slowly
release

E|-------------------------------------------------------------|
B|-------------------------------------------------------------|
G|----------------7---7-------------------------9---9----------|
D|----------------7---7-------------------------9---9----------|
A|7~~~~~~~~~~~~~~~5---5---------8~~~~~~~~~~~~~~~7---7----------|
E|---------------------------------------------------------12⁄-|

E|-------------------------------------------------------------|
B|-------------------------------------------------------------|
G|9-------------7---------------10--------------9---9-----9-9⁄-|
D|9-------------7---------------10--------------9---9-----9-9⁄-|
A|7-------------5---------------8---------------7---7-----7-7⁄-|
E|-------------------------------------------------------------|

E|------------17-------------------|
B|---------17----20-17-20-20B(22)~-|
G|2-19B(21)------------------------|
D|2--------------------------------|
A|0--------------------------------|
E|---------------------------------|

E|-17------17------17------------17---|
B|---20B(22)-20B(22)-20B(22)-20B(22)~-|
G|------------------------------------|
D|------------------------------------|
A|------------------------------------|
E|------------------------------------|

E|-------------------------------------|
B|-------------------------------------|
G|2---------------------------2------2-|
D|2---------------------------2------2-|
A|0---------------------------0------0-|
E|-------------------------------3B(5)-|

E|------------------------------------------------------------|
B|15B(17)--R--(15)-15~~~~~~~~~~~~~~~15B(18)--R--(15)--15B(17)~|
G|------------------------------------------------------------|
D|------------------------------------------------------------|
A|------------------------------------------------------------|
E|------------------------------------------------------------|

E|------------------------------------------------------|
B|------------------------------------------------------|
G|9----------------7----------------10----------------9-|
D|9----------------7----------------10----------------9-|
A|7----------------5----------------8-----------------7-|
E|------------------------------------------------------|

                           rake-]
E|-------------------------------15-17B(19)-|
B|15B(17)--R--(15)-15~~~~~~~~--15-----------|
G|---------------------------16-------------|
D|------------------------------------------|
A|------------------------------------------|
E|------------------------------------------|

E|-------------------------------------|
B|-------------------------------------|
G|9----------------10---------------12-|
D|9----------------10---------------12-|
A|7----------------8----------------10-|
E|-------------------------------------|

      fade out
E|---|
B|17-|
G|17-|
D|17-|
A|15-|
E|---|

E|---|
B|---|
G|---|
D|10-|
A|10-|
E|8--|

Тональность:

Это должно быть в ТОП-листе! - Топ-лист композиций



Назад
Рекомендуем посмотреть другие песни исполнителя «Pink Floyd»:

  • Комменты Fb ()
  • Комменты ВК



Добавить в Избранное Браузера
Сохранить здесь Очистить


x

0


+
-

+
-

-

Авторизация





Зарегистрироваться

M

Дата и время

  • 21:40:27
     

Социальные ссылки


Наши приложения

  • Muzbank App Play Market
  • Muzbank Amazon App