MUZBANK


МУЗЫКАЛЬНО-ИНФОРМАЦИОННЫЙ БАНК





PPink Floyd • Young lust (аккорды и текст - chords & lyrics)


702

Print

Видео «Young lust (Pink Floyd)»

Видео клипы к песне подбираются автоматически сайтом youtube. Возможны некоторые несоответствия клипов песне.

↑ Спрятать рекламу ↑






(E5)
I am just a new boy,
--------------------|
------------------3-|
------------2/4-----|
--------------------|
--------------------|
-0----0-------------|

A
    a
------------------------|
------------------------|
--------------x---2---2-|
--------------x---2---2-|
--------------x---0---0-|
------------------------|

E5
stranger in this town
--------------------|
------------------3-|
-----------2/4------|
--2---2-------------|
--2---2-------------|
--0---0-------------|

---------------------------|
---------------------------|
-----------------0--2----2-|
---------------------------|
---------------------------|
---------------------------|

Who's gonna show this stranger around.
--------------------|
------------------3-|
------------2/4-----|
--------------------|
--------------------|
-0----0-------------|

---------------------------------|
-------------------------0-------|
---------------------------------|
---------------------------------|
------------------------------3/-|
------------------------------1/-|

Pre-chorus:
G5
------------------------------------------------|
------------------------------------------------|
------------------------------------------------|
------------------------------------------------|
--5------(5)--7------(7)-5--5--5--5--7--------7-|
--3----3--3--3----3--3--3--3--3--3--3----3------|

-----------------------------------------------|
-----------------------------------------------|
-----------------------------------------------|
-----------------------------------------------|
--5----x--x--7----x--x--5----x--x--7/---x--x⁄--|
--3----x--x--3----x--x--3----x--x-(3)----x--x⁄-|

(E5)
--------------------|
------------------3-|
------------2/4-----|
--------------------|
--------------------|
------0-------------|

------------------------------------------|
------------------------------------------|
-----------------------------x--x--x------|
-----------------------------x--x--x------|
-----------------------------x--x--x------|
-----------------------------x--x--x--10⁄-|

Chorus:
Am
Ooh,
---------------------------------------------|
---------------------------------------------|
--5-------------------------------5----------|
--7-------------------------------7----------|
--7-------------------------------7----------|
--5-------------------------------5--------5-|

 I need a dirty woman
------------------------|
------------------------|
--5------------------5⁄-|
--7------------------7⁄-|
--7------------------7⁄-|
--5------------------5⁄-|

G
------------------------------------------|
------------------------------------------|
--4------------------4--------------------|
--5------------------5--------------------|
--5------------------5--------------------|
--3------------------3------------------3-|

-----------------------------------------|
-----------------------------------------|
--4-----------------(4)---4------(5)---5-|
--5------------------5----5-------6---6--|
--5------------------5----5-------6---6--|
--3------------------3----3-------4---4--|

Am
Ooh,
---------------------------------------------|
---------------------------------------------|
--5----------------------------------------5-|
--7----------------------------------------7-|
--7----------------------------------------7-|
--5----------------------------------------5-|

 I need a dirty girl.
-------------------------------|
-------------------------------|
--5------------------5--5------|
--7------------------7--7------|
--7------------------7--7------|
--5-------------------------5⁄-|

(E5)
------|
------|
------|
------|
------|
----0-|

---------------------------------------|
----------------------12------------15-|
----------------------12-------12------|
--------------------------------12-----|
-----------12/-------------------------|
---------------------------------------|

Тональность:

Это должно быть в ТОП-листе! - Топ-лист композиций



Назад
Рекомендуем посмотреть другие песни исполнителя «Pink Floyd»:

  • Комменты Fb ()
  • Комменты ВК



Добавить в Избранное Браузера
Сохранить здесь Очистить


x

0


+
-

+
-

-

Авторизация





Зарегистрироваться

M

Дата и время

  • 14:14:16
     

Социальные ссылки


Наши приложения

  • Muzbank App Play Market
  • Muzbank Amazon App