MUZBANK


МУЗЫКАЛЬНО-ИНФОРМАЦИОННЫЙ БАНК





PPitchshifter • Everything Sucks (аккорды и текст - chords & lyrics)


471

Print

Видео «Everything Sucks (Pitchshifter)»

Видео клипы к песне подбираются автоматически сайтом youtube. Возможны некоторые несоответствия клипов песне.

↑ Спрятать рекламу ↑





 


Everything Sucks/F**ked [again] by Pitchshifter
Transcribed by Leo Harfield 

One whole step detuning (FCGD), 87 bpm.

Intro and Verse
F|----------------------------------------------------------------|
C|----------------------------------------------------------------|
G|----------------------------------------------------------------|
D|-----7--7--7--3--6--4-------------------------------------------|

Chorus
F|----------------------------------------------------------------|
C|----------------------------------------------------------------|
G|----------------------------------------------------------------|
D|-----70-70-70-70-70---333333333-555555555-----------------------|

F|----------------------------------------------------------------|
C|----------------------------------------------------------------|
G|----------------------------------------------------------------|
D|-----70-70-70-70-70---333333333-6666666666----------------------|

Bridge
F|----------------------------------------------------------------|
C|----------------------------------------------------------------|
G|----------------------------------------------------------------|
D|-----4-4-4-/7--4-4-4-/7--4-4-4--0-00-0-----------------------|


If you have any questions, comments or corrections, mail me. Thanks.
 

Тональность:

Это должно быть в ТОП-листе! - Топ-лист композиций



Назад
Рекомендуем посмотреть другие песни исполнителя «Pitchshifter»:

  • Комменты Fb ()
  • Комменты ВК



Добавить в Избранное Браузера
Сохранить здесь Очистить


x

0


+
-

+
-

-

Авторизация





Зарегистрироваться

M

Дата и время

  • 23:27:33
     

Социальные ссылки


Наши приложения

  • Muzbank App Play Market
  • Muzbank Amazon App