MUZBANK


МУЗЫКАЛЬНО-ИНФОРМАЦИОННЫЙ БАНК





ППлач Еремii • Вона (аккорды и текст - chords & lyrics)


2166

Print

Видео «Вона (Плач Еремii)»

Видео клипы к песне подбираются автоматически сайтом youtube. Возможны некоторые несоответствия клипов песне.

↑ Спрятать рекламу ↑





 


Плач Еремії Вона


1-----------------|------------------|-------------|
2-------1---------|------0-----------|-----0-1-----|
3----------2------|----------2-------|--2-------2--|
4-------------2---|--3---------2-----|-------------|
5--0--------------|------------------|0------------|
6-----------------|------------------|-------------|

1--------------|----0--------------|----------------|
2------0-------|----1--1-----------|-----0----------|
3---2-------2--|----2------2-------|--------2-------|
4-3------------|----2----------2---|--3-------2-----|
5--------------|----0--------------|----------------|
6--------------|----0--------------|------------|


1-------0--------|---------------|
2----------------|--3-----0------|
3---1------1-----|-----1—----1---|
4----------------|---------------|
5----------------|---------------|
6-0--------------|---------------|

Это играется дважды,

На этом же вступлении играется 1 куплет:

Завтра прийде до кiмнати
Твоїх друзiв небагато
Вип’єте холодного вина
Хтось принесе бiлi айстри
Скаже хтось “Життя прекрасне!”
Так, життя прекрасне, а вона...

Припев – перебором
5–4–(1,2)–3 - на С, Am,
или
6–5–(1,2)–3 - на G, E(E7)

C       G
А вона, а вона
C
Сидiтиме сумна.
G
Буде пити, не п’янiти
C
Вiд дешевого вина.
Am        E/E7
Я спiватиму для неї,
Am
Аж бринiтиме кришталь,
E/E7
Та хiба зумiє голос
Am
Подолати цю печаль.


Дальше играется боем (на фоне темы вступления). Проигрыш –

Am – F – Am – F – Am – F – E

2 куплет

Am           F
Так у свiтi повелося
Am       F
Я люблю її волосся
Am       F          E
Я люблю її тонкi вуста.
Am            F
Та невдовзi прийде осiнь
Am         F
Ми усi розбiжимося
Am        F         E
По русифiкованих мiстах.

Припев 2(аккорды как в Припев 1)

Лиш вона, лиш вона
Сидiтиме сумна.
Буде пити, не п’янiти
Вiд дешевого вина.
Моя дiвчинко печальна,
Моя доле золота.
Я продовжую кричати,
Нiч безмежна i пуста.

Дальше идёт соло, которое у меня подобрать не хватило профессионализма:)…

А здесь уже кому как понравится – или перебором как 1 припев, или под вступление.

Am           F
Так у свiтi повелося
Am           F
Я люблю її волосся
Am           F      E
Я люблю її тонкi вуста.
Am            F
Та невдовзi прийде осiнь
Am           F
Ми усi розбiжимося
Am           F      E
По русифiкованих мiстах.

Припев 2 (боем)

C        G
Я продовжую кричати,
C
Нiч безмежна i пуста.
Am         E/E7
Я продовжую кричати,
Am
Нiч безмежна i пуста.

Дальше – длинный проигрыш, в нём опять играется тема вступления.
Am – F – Am – F – Am – F – E
Am – F – Am – F – Am – F – E
Am
 

Тональность:

Это должно быть в ТОП-листе! - Топ-лист композиций



Назад

  • Комменты Fb ()
  • Комменты ВК



Добавить в Избранное Браузера
Сохранить здесь Очистить


x

0


+
-

+
-

-

Авторизация





Зарегистрироваться

M

Дата и время

  • 06:02:26
     

Социальные ссылки


Наши приложения

  • Muzbank App Play Market
  • Muzbank Amazon App