MUZBANK


МУЗЫКАЛЬНО-ИНФОРМАЦИОННЫЙ БАНК





PP.O.D. • Southtown (аккорды и текст - chords & lyrics)


501

Print

Видео «Southtown (P.O.D.)»

Видео клипы к песне подбираются автоматически сайтом youtube. Возможны некоторые несоответствия клипов песне.

↑ Спрятать рекламу ↑






 


artist: payable on death
     song: southtown
    album: fundamental elements of southtown
tabbed by: ryan mckee


***note: contarary to common belief, this song
         is played in LOW D. Yes, Traa plays a
	 4 string, but he detunes to low D.  I
	 have tabbed this out in 5 string format
	 AND 4 string like it is traditionally
	 played.

guitar intro...with bass 2nd bar                        x3
g||--9----9----------------------12-10-9-9-9-9----------||
d||----10---10-10----10----10---------------------------||
a||---------------12----12----12---------------5-5-5-5--||
e||-----------------------------------------------------||
B||-----------------------------------------------------||

verse                                             x6
g||-----------------------------------------------||
d||-----------------------------------------------||
a||-----------------------------------------------||
e||--5-------------------5-5-5--------------------||
B||----6-6-6-x-6-6-6-6-6-------3-3-3-x-3-3-3-3-3--||

breakdown #1
g||------------------||
d||------------------||
a||--5-8-7---5------||
e||-------------5----||
B||---------------3--||

chorus with variations                   x4
g||--------------------------------------||
d||--------------------------------------||
a||--------------------------------------||
e||------8-8------8-------5-5-----5-5----||
B||--6-6-----6-6----6-3-3-----3-3-----5--||

breakdown #2
g||------------------------------||
d||------------------------------||
a||--5-8-7--5------5-8-7--0h5-5-5||
e||-----------5------------------||
B||-------------3----------------||

bridge (aint got to be)  repeat till back into verse, then into chorus.
g||---------||
d||---------||
a||---------||
e||---------||
B||--3-5-6--||

ending
g||--------------------------------------------||
d||--------------------------------------------||
a||--------------------------------------------||
e||------------------5b(full)------------------||
B||--6-6-6-6-6-6-6-6----------3-3-3-3-3-3-3-3--||

song structure
intro x3
verse x6
breakdown #1
chorus x4
breakdown #2
bridge 
verse x2
chorus x2
ending

4 string ver.

guitar intro...with bass 2nd bar                        x3
g||--9----9----------------------12-10-9-9-9-9----------||
d||----10---10-10----10----10---------------------------||
a||---------------12----12----12---------------5-5-5-5--||
D||-----------------------------------------------------||

verse                                        x6
g||------------------------------------------||
d||------------------------------------------||
a||------------------------------------------||
D||--7-3-3-3-x-3-3-3-3-3--7-0-0-0-x-0-0-0-0--||

breakdown #1
g||------------------||
d||------------------||
a||--5-8-7---5------||
D||-------------7-0--||

chorus with variations                   x4
g||-------------------------------------||
d||-------------------------------------||
a||------3-3-----3----------------------||
D||--3-3-----3-3---3-0-0-5-5-0-0-5-5-2--||

breakdown #2
g||-------------------------------||
d||-------------------------------||
a||--5-8-7--5-----5-8-7--0h5-5-5--||
D||-----------7-0-----------------||

bridge (aint got to be)  repeat till back into verse, then into chorus.
g||---------||
d||---------||
a||---------||
D||--0-2-3--||

ending
g||--------------------------------------------||
d||--------------------------------------------||
a||--------------------------------------------||
D||--3-3-3-3-3-3-3-3-7b(full)-0-0-0-0-0-0-0-0--||

song structure
intro x3
verse x6
breakdown #1
chorus x4
breakdown #2
bridge 
verse x2
chorus x2
ending
 

Тональность:

Это должно быть в ТОП-листе! - Топ-лист композиций



Назад
Рекомендуем посмотреть другие песни исполнителя «P.O.D.»:

  • Комменты Fb ()
  • Комменты ВК



Добавить в Избранное Браузера
Сохранить здесь Очистить


x

0


+
-

+
-

-

Авторизация





Зарегистрироваться

M

Дата и время

  • 23:35:41
     

Социальные ссылки


Наши приложения

  • Muzbank App Play Market
  • Muzbank Amazon App