MUZBANK


МУЗЫКАЛЬНО-ИНФОРМАЦИОННЫЙ БАНК





PP.O.D. • The Messenjah (аккорды и текст - chords & lyrics)


586

Print

Видео «The Messenjah (P.O.D.)»

Видео клипы к песне подбираются автоматически сайтом youtube. Возможны некоторые несоответствия клипов песне.

↑ Спрятать рекламу ↑






 


The Messinjah
By: P.O.D.

Intro
-----------------------------------------------------------------------
-----------------------------------------------------------------------
-----------------------------------------------------------------------
11-11-11-11-11-11-117-7-7-7-7-711-11-11-11-11-11-14-14-14-14--------
9--9--9--9--9--9--9-5-5-5-5-5-59--9--9--9--9--9--12-12-12-12--------
-----------------------------------------------------------------------

Chorus
-----------------------------------------------------------------------
-----------------------------------------------------------------------
-----------------------------------------------------------------------
0-2-3-0-22-22-22-22-2222-55-55-55-55-5555-00-00-00-00-0000-00-00-00-00-
0-2-3-0-22-22-22-22-2222-55-55-55-55-5555-00-00-00-00-0000-00-00-00-00-x2
0-2-3-0-22-22-22-22-2222-55-55-55-55-5555-00-00-00-00-0000-00-00-00-00-

Verse
12-13----12------------------------------------------------------------
------13----12---------------------------------------------------------
-----------------------------------------------------------------------
-----------------------------------------------------------------------
-----------------------------------------------------------------------
-----------------------------------------------------------------------

Pre-Chorus
------------------------------------------------------------------------
------------------------------------------------------------------------
------------------------------------------------------------------------
00-0-5320-22-0-5320-00-0-5320-22-0-5320-00-0-5320-22-0-5320-00-0-5320-00xxxxxxx
00--------22--------00--------22--------00--------22--------00--------00xxxxxxx
00--------22--------00--------22--------00--------22--------00--------00xxxxxxx

Chorus

Verse

Pre-Chorus

Chorus

Post-Chorus
-----------------------------------------------------------------------
-----------------------------------------------------------------------
4-0--0-4-0--0----------------------------------------------------------
x-0--0-x-0--0-24202----------------------------------------------------
2-0--0-2-0--0----------------------------------------------------------
----------------------------------------------------------------------- 

Intro

Chorus

Chorus

Post-Chorus

Pre-Chorus

Outro
-----------------------------------------------------------------------
-----------------------------------------------------------------------
-----------------------------------------------------------------------
04202-2---------------------------2------------------------------------
------2-A-Ton Of Times------------2------------------------------------
------2---------------------------2------------------------------------ 

My E-Mail Is bunjeedog3@zoomtown.com Ny complements or complaints are welcome
Ben Furtwengler
 

Тональность:

Это должно быть в ТОП-листе! - Топ-лист композиций



Назад
Рекомендуем посмотреть другие песни исполнителя «P.O.D.»:

  • Комменты Fb ()
  • Комменты ВК



Добавить в Избранное Браузера
Сохранить здесь Очистить


x

0


+
-

+
-

-

Авторизация





Зарегистрироваться

M

Дата и время

  • 11:16:20
     

Социальные ссылки


Наши приложения

  • Muzbank App Play Market
  • Muzbank Amazon App