MUZBANK


МУЗЫКАЛЬНО-ИНФОРМАЦИОННЫЙ БАНК





PP.O.D. • Youth Of The Nation (аккорды и текст - chords & lyrics)


393

Print

Видео «Youth Of The Nation (P.O.D.)»

Видео клипы к песне подбираются автоматически сайтом youtube. Возможны некоторые несоответствия клипов песне.

↑ Спрятать рекламу ↑






 


P.O.D. - Youth of the Nation

Tuning - Drop C (C,G,C,F,A,d)

This song has delay/chorus/echo the whole way through except for the bridge

() - Ghost notes (play lightly)[not needed but sounds cool]

 Intro/Chorus: x4
|--------------------------------------------|---------------|(this is optional,you
|--------------------------------------------|---------------|can just let the echo
|--------------------------------------------|---------------|from the pedal go with
|---------------------------5-(5)-(5)---3p0--|--(0)-(0)-(0)--|it or use this too)
|--------------------------------------------|--(5)-(5)-(5)--|
|--0-(0)-(0)--(0)---(0)--3-------------------|---------------|


 Verse riff 1: x4
|---------------------------------------------|
|---------------------------------------------|
|------------------2--------------------------|
|--------0--------------------5-(5)-(5)--3p0--|
|---------------------------------------------|
|--0-(0)---(0)-(0)---(0)--3-------------------|

 Verse Riff 2: x2
|-----------(10)-10-(10)--12-(12)-(12)-(12)--|
|--(10)-10-----------------------------------|
|--------------------------------------------|
|--------------------------------------------|
|--------------------------------------------|
|--------------------------------------------|

 Verse Riff 2 continued
|--13-(13)-(13)-(13)---------------(10)-10-----------------------------|
|---------------------(10)-10-(10)-------------------------------------|
|---------------------------------------------------12-(12)-(12)-(12)--|
|-------------------------------------------10-(10)--------------------|
|----------------------------------------------------------------------|
|----------------------------------------------------------------------|


~~Intro/Chorus~~

~~Verse Riffs~~


 Bridge : (with Distortion and possibly Flanger)
|-------------------------------------------|
|-----5-6--5-6--8--8p6p5--5h6p5-----5-------|
|--7-----------------------------7-----7-5--|
|-------------------------------------------| x2
|-------------------------------------------|
|-------------------------------------------|


~~Verse Riff2 ~~

 Outro: there is a second guitar doin some noises
        with a wah pedal,you can try to figure it out because i cant 

|---------------------------------------|
|---------------------------------------|
|---------------------------------------|
|-------------------------5-(5)-(5)-----|
|---------------------------------------|
|--0-(0)-(0)-(0)-(0)--3-----------------|


Lyrics
-------
Last day of the rest of my life 
I wish I would 

Тональность:

Это должно быть в ТОП-листе! - Топ-лист композиций



Назад
Рекомендуем посмотреть другие песни исполнителя «P.O.D.»:

  • Комменты Fb ()
  • Комменты ВК



Добавить в Избранное Браузера
Сохранить здесь Очистить


x

0


+
-

+
-

-

Авторизация





Зарегистрироваться

M

Дата и время

  • 14:56:05
     

Социальные ссылки


Наши приложения

  • Muzbank App Play Market
  • Muzbank Amazon App