MUZBANK


МУЗЫКАЛЬНО-ИНФОРМАЦИОННЫЙ БАНК





PPolice • Bring On The Night (аккорды и текст - chords & lyrics)


379

Print

Видео «Bring On The Night (Police)»

Видео клипы к песне подбираются автоматически сайтом youtube. Возможны некоторые несоответствия клипов песне.

↑ Спрятать рекламу ↑





Intro:

e--------------------------------------------------------------------------
B-------------------------------------------------------------------------
G------------------------------------------------------------------0------
D--------------------0-0-0-0-0-0-0-0-2-2-2-2-2---2-2-2-2-2-2-2-0h2---2p0---
A--3-3-3-3-3-3-3-3-3-----------------------------------------------------3-
E-----------------------------------------------0-

Repeat etc..

Verse:

e-5--5--5---3--3--3--2--2--2--3--3--3--0--0--0--7--7--7--5--5--5--3--3--3----
B---5--5------5--5-----1--1-----5--5-----0--0-----8--8-----5--5-----5--5-----
G--5--5------4--4-----2--2-----4--4-----0--0-----7--7-----5--5-----4--4------
D----------------------------------------------------------------------------
A----------------------------------------------------------------------------
E----------------------------------------------------------------------------

Chorus:

Just hit these chords with a reggae feel:(rhythm - Dn Up Dn x2)

All barre: G A Am Em D

I dont know the lyrics off hand,but if anyone wants them just give me a shout
and i'll dig them out.

Тональность:

Это должно быть в ТОП-листе! - Топ-лист композиций



Назад
Рекомендуем посмотреть другие песни исполнителя «Police»:

  • Комменты Fb ()
  • Комменты ВК



Добавить в Избранное Браузера
Сохранить здесь Очистить


x

0


+
-

+
-

-

Авторизация





Зарегистрироваться

M

Дата и время

  • 16:43:04
     

Социальные ссылки


Наши приложения

  • Muzbank App Play Market
  • Muzbank Amazon App