MUZBANK


МУЗЫКАЛЬНО-ИНФОРМАЦИОННЫЙ БАНК





PPolice • Camel (аккорды и текст - chords & lyrics)


465

Print

Видео «Camel (Police)»

Видео клипы к песне подбираются автоматически сайтом youtube. Возможны некоторые несоответствия клипов песне.

↑ Спрятать рекламу ↑





E ---------------|---------------|-10----------------|---------------|
B -----7h8-------|-----7h8-------|-----12------------|-----7h8-------|
G -5-8-----------|-5-8-----------|-------------------|-5-8-----------|
D ---------------|---------------|-------------------|---------------|
A ---------------|---------------|-------------------|---------------|
D ---------------|---------------|---------12--0-----|---------------|


E ---------------|-10----------------|---------------|---------------|
B -----7h8-------|-----12------------|---------------|-----7h8-------|
G -5-8-----------|-------------------|---------------|-5-8-----------|
D ---------------|-------------------|---------------|---------------|
A ---------------|-------------------|---------------|---------------|
D ---------------|---------12--0-----|-5-------------|---------------|


E ---------------|-10----------------|---------------|---------------|
B -----7h8-------|-----12------------|---------------|---------------|
G -5-8-----------|-------------------|---------------|---------------|
D ---------------|-------------------|---------------|---------------|
A ---------------|-------------------|---------------|-3-------------|
D ---------------|---------12--0-----|-5-------------|---------------|

Тональность:

Это должно быть в ТОП-листе! - Топ-лист композиций



Назад
Рекомендуем посмотреть другие песни исполнителя «Police»:

  • Комменты Fb ()
  • Комменты ВК



Добавить в Избранное Браузера
Сохранить здесь Очистить


x

0


+
-

+
-

-

Авторизация





Зарегистрироваться

M

Дата и время

  • 14:48:46
     

Социальные ссылки


Наши приложения

  • Muzbank App Play Market
  • Muzbank Amazon App